  0
SECTION
  2
HEADER
  9
$ACADVER
  1
AC1009
  9
$INSBASE
 10
0.0
 20
0.0
 30
0.0
  9
$EXTMIN
 10
-270.01647823492112
 20
-405.76244757968732
 30
-0.0015258207003583
  9
$EXTMAX
 10
270.0164807494923
 20
397.08808227102492
 30
0.0000000349246037
  9
$LIMMIN
 10
0.0
 20
0.0
  9
$LIMMAX
 10
0.0
 20
0.0
  9
$ORTHOMODE
 70
     0
  9
$REGENMODE
 70
     1
  9
$FILLMODE
 70
     1
  9
$QTEXTMODE
 70
     0
  9
$MIRRTEXT
 70
     1
  9
$DRAGMODE
 70
     2
  9
$LTSCALE
 40
15.24
  9
$OSMODE
 70
   231
  9
$ATTMODE
 70
     1
  9
$TEXTSIZE
 40
0.0
  9
$TRACEWID
 40
1.0
  9
$TEXTSTYLE
  7
STANDARD
  9
$CLAYER
  8
DATA
  9
$CELTYPE
  6
BYLAYER
  9
$CECOLOR
 62
   256
  9
$DIMSCALE
 40
1.0
  9
$DIMASZ
 40
0.18
  9
$DIMEXO
 40
0.0625
  9
$DIMDLI
 40
0.38
  9
$DIMRND
 40
0.0
  9
$DIMDLE
 40
0.0
  9
$DIMEXE
 40
0.18
  9
$DIMTP
 40
0.0
  9
$DIMTM
 40
0.0
  9
$DIMTXT
 40
0.18
  9
$DIMCEN
 40
0.09
  9
$DIMTSZ
 40
0.0
  9
$DIMTOL
 70
     0
  9
$DIMLIM
 70
     0
  9
$DIMTIH
 70
     1
  9
$DIMTOH
 70
     1
  9
$DIMSE1
 70
     0
  9
$DIMSE2
 70
     0
  9
$DIMTAD
 70
     0
  9
$DIMZIN
 70
     0
  9
$DIMBLK
  1

  9
$DIMASO
 70
     1
  9
$DIMSHO
 70
     1
  9
$DIMPOST
  1

  9
$DIMAPOST
  1

  9
$DIMALT
 70
     0
  9
$DIMALTD
 70
     2
  9
$DIMALTF
 40
25.399999999999999
  9
$DIMLFAC
 40
1.0
  9
$DIMTOFL
 70
     0
  9
$DIMTVP
 40
0.0
  9
$DIMTIX
 70
     0
  9
$DIMSOXD
 70
     0
  9
$DIMSAH
 70
     0
  9
$DIMBLK1
  1

  9
$DIMBLK2
  1

  9
$DIMSTYLE
  2
STANDARD
  9
$DIMCLRD
 70
     0
  9
$DIMCLRE
 70
     0
  9
$DIMCLRT
 70
     0
  9
$DIMTFAC
 40
1.0
  9
$DIMGAP
 40
0.09
  9
$LUNITS
 70
     2
  9
$LUPREC
 70
     4
  9
$SKETCHINC
 40
0.1
  9
$FILLETRAD
 40
0.0
  9
$AUNITS
 70
     0
  9
$AUPREC
 70
     0
  9
$MENU
  1
acad
  9
$ELEVATION
 40
0.0
  9
$PELEVATION
 40
0.0
  9
$THICKNESS
 40
0.0
  9
$LIMCHECK
 70
     0
  9
$BLIPMODE
 70
     0
  9
$CHAMFERA
 40
0.0
  9
$CHAMFERB
 40
0.0
  9
$SKPOLY
 70
     0
  9
$TDCREATE
 40
2456279.4989351849
  9
$TDUPDATE
 40
2456279.5039212848
  9
$TDINDWG
 40
0.0003304514
  9
$TDUSRTIMER
 40
0.0003303935
  9
$USRTIMER
 70
     1
  9
$ANGBASE
 50
0.0
  9
$ANGDIR
 70
     0
  9
$PDMODE
 70
     1
  9
$PDSIZE
 40
-2.0
  9
$PLINEWID
 40
0.0
  9
$COORDS
 70
     2
  9
$SPLFRAME
 70
     0
  9
$SPLINETYPE
 70
     6
  9
$SPLINESEGS
 70
     8
  9
$ATTDIA
 70
     0
  9
$ATTREQ
 70
     1
  9
$HANDLING
 70
     1
  9
$HANDSEED
  5
424
  9
$SURFTAB1
 70
     6
  9
$SURFTAB2
 70
     6
  9
$SURFTYPE
 70
     6
  9
$SURFU
 70
     6
  9
$SURFV
 70
     6
  9
$UCSNAME
  2

  9
$UCSORG
 10
0.0
 20
0.0
 30
0.0
  9
$UCSXDIR
 10
1.0
 20
0.0
 30
0.0
  9
$UCSYDIR
 10
0.0
 20
1.0
 30
0.0
  9
$PUCSNAME
  2

  9
$PUCSORG
 10
0.0
 20
0.0
 30
0.0
  9
$PUCSXDIR
 10
1.0
 20
0.0
 30
0.0
  9
$PUCSYDIR
 10
0.0
 20
1.0
 30
0.0
  9
$USERI1
 70
     0
  9
$USERI2
 70
     0
  9
$USERI3
 70
     0
  9
$USERI4
 70
     0
  9
$USERI5
 70
     0
  9
$USERR1
 40
0.0
  9
$USERR2
 40
0.0
  9
$USERR3
 40
0.0
  9
$USERR4
 40
0.0
  9
$USERR5
 40
0.0
  9
$WORLDVIEW
 70
     1
  9
$SHADEDGE
 70
     3
  9
$SHADEDIF
 70
    70
  9
$TILEMODE
 70
     1
  9
$MAXACTVP
 70
    64
  9
$PLIMCHECK
 70
     0
  9
$PEXTMIN
 10
1.0000000000000000E+020
 20
1.0000000000000000E+020
 30
1.0000000000000000E+020
  9
$PEXTMAX
 10
-1.0000000000000000E+020
 20
-1.0000000000000000E+020
 30
-1.0000000000000000E+020
  9
$PLIMMIN
 10
0.0
 20
0.0
  9
$PLIMMAX
 10
12.0
 20
9.0
  9
$UNITMODE
 70
     0
  9
$VISRETAIN
 70
     0
  9
$PLINEGEN
 70
     1
  9
$PSLTSCALE
 70
     0
  0
ENDSEC
  0
SECTION
  2
TABLES
  0
TABLE
  2
VPORT
 70
     1
  0
VPORT
  2
*ACTIVE
 70
     0
 10
0.0
 20
0.0
 11
1.0
 21
1.0
 12
0.0000012572855894
 22
-3.531813134582193
 13
0.0
 23
0.0
 14
1.0
 24
1.0
 15
0.0
 25
0.0
 16
0.0
 26
0.0
 36
1.0
 17
0.0
 27
0.0
 37
0.0
 40
808.96879200874992
 41
2.5684380032206109
 42
50.0
 43
0.0
 44
0.0
 50
0.0
 51
0.0
 71
     0
 72
  2000
 73
     1
 74
     1
 75
     0
 76
     0
 77
     0
 78
     0
  0
ENDTAB
  0
TABLE
  2
LTYPE
 70
    12
  0
LTYPE
  2
CONTINUOUS
 70
     0
  3
Solid line
 72
    65
 73
     0
 40
0.0
  0
LTYPE
  2
PHANTOM2
 70
     0
  3
___ _ _ ___ _ _ ___ _ _ ___ _ _
 72
    65
 73
     6
 40
1.25
 49
0.625
 49
-0.125
 49
0.125
 49
-0.125
 49
0.125
 49
-0.125
  0
ENDTAB
  0
TABLE
  2
LAYER
 70
     5
  0
LAYER
  2
0
 70
     0
 62
     7
  6
CONTINUOUS
  0
LAYER
  2
DATA
 70
     0
 62
     7
  6
CONTINUOUS
  0
LAYER
  2
HIBINO-BASE
 70
     0
 62
     7
  6
CONTINUOUS
  0
LAYER
  2
SPEC
 70
     0
 62
     7
  6
CONTINUOUS
  0
LAYER
  2
DIMNSIONS
 70
     0
 62
     7
  6
CONTINUOUS
  0
ENDTAB
  0
TABLE
  2
STYLE
 70
     3
  0
STYLE
  2
STANDARD
 70
     0
 40
0.0
 41
1.0
 50
0.0
 71
     0
 42
0.0
  3
txt
  4
BIGFONT.SHX
  0
ENDTAB
  0
TABLE
  2
VIEW
 70
     0
  0
ENDTAB
  0
TABLE
  2
UCS
 70
     0
  0
ENDTAB
  0
TABLE
  2
APPID
 70
     4
  0
APPID
  2
ACAD
 70
     0
  0
APPID
  2
ACADANNOTATIVE
 70
     0
  0
APPID
  2
ACAD_NAV_VCDISPLAY
 70
     0
  0
APPID
  2
ACAD_MLEADERVER
 70
     0
  0
ENDTAB
  0
TABLE
  2
DIMSTYLE
 70
     2
  0
DIMSTYLE
  2
STANDARD
 70
     0
  3

  4

  5

  6

  7

 40
1.0
 41
0.18
 42
0.0625
 43
0.38
 44
0.18
 45
0.0
 46
0.0
 47
0.0
 48
0.0
140
0.18
141
0.09
142
0.0
143
25.399999999999999
144
1.0
145
0.0
146
1.0
147
0.09
 71
     0
 72
     0
 73
     1
 74
     1
 75
     0
 76
     0
 77
     0
 78
     0
170
     0
171
     2
172
     0
173
     0
174
     0
175
     0
176
     0
177
     0
178
     0
  0
ENDTAB
  0
ENDSEC
  0
SECTION
  2
BLOCKS
  0
BLOCK
  8
0
  2
$MODEL_SPACE
 70
     0
 10
0.0
 20
0.0
 30
0.0
  3
$MODEL_SPACE
  1

  0
ENDBLK
  5
33E
  8
0
  0
BLOCK
 67
     1
  8
0
  2
$PAPER_SPACE
 70
     0
 10
0.0
 20
0.0
 30
0.0
  3
$PAPER_SPACE
  1

  0
ENDBLK
  5
33A
 67
     1
  8
0
  0
ENDSEC
  0
SECTION
  2
ENTITIES
  0
LINE
  5
2C
  8
HIBINO-BASE
  6
CONTINUOUS
 62
     7
 10
-269.99999999999989
 20
397.0636300000001
 30
0.0
 11
269.99999999999989
 21
397.0636300000001
 31
0.0
  0
LINE
  5
2D
  8
HIBINO-BASE
  6
CONTINUOUS
 62
     7
 10
269.99999999999989
 20
-382.93637000000001
 30
0.0
 11
-269.99999999999989
 21
-382.93637000000001
 31
0.0
  0
LINE
  5
2E
  8
HIBINO-BASE
  6
CONTINUOUS
 62
     7
 10
-269.99999999999989
 20
-382.93637000000001
 30
0.0
 11
-269.99999999999989
 21
397.0636300000001
 31
0.0
  0
LINE
  5
2F
  8
HIBINO-BASE
  6
CONTINUOUS
 62
     7
 10
269.99999999999989
 20
397.0636300000001
 30
0.0
 11
269.99999999999989
 21
-382.93637000000001
 31
0.0
  0
LINE
  5
30
  8
HIBINO-BASE
  6
CONTINUOUS
 62
     7
 10
0.0000000000000213
 20
-315.43637000000001
 30
0.0
 11
269.99999999999989
 21
-315.43637000000001
 31
0.0
  0
LINE
  5
31
  8
HIBINO-BASE
  6
CONTINUOUS
 62
     7
 10
0.0000000000000213
 20
-382.93637000000001
 30
0.0
 11
0.0000000000000213
 21
-315.43637000000001
 31
0.0
  0
TEXT
  5
32
  8
HIBINO-BASE
 62
     7
 10
2.700000000000037
 20
-322.96244999999999
 30
0.0
 40
4.8865234374999993
  1
NOTE
 41
0.7
 11
2.7000000000000379
 21
-318.0759265625
 31
0.0
 73
     3
  0
LINE
  5
33
  8
HIBINO-BASE
  6
CONTINUOUS
 62
     7
 10
105.0
 20
-382.93637000000001
 30
0.0
 11
105.0
 21
-315.43637000000001
 31
0.0
  0
TEXT
  5
34
  8
HIBINO-BASE
 62
     7
 10
107.7
 20
-322.96244999999999
 30
0.0
 40
4.8865234374999993
  1
TITLE
 41
0.7
 11
107.7
 21
-318.0759265625
 31
0.0
 73
     3
  0
LINE
  5
35
  8
HIBINO-BASE
  6
CONTINUOUS
 62
     7
 10
0.0000000000000213
 20
-352.93637000000001
 30
0.0
 11
269.99999999999989
 21
-352.93637000000001
 31
0.0
  0
TEXT
  5
36
  8
HIBINO-BASE
 62
     7
 10
145.19999999999999
 20
-360.29349000000008
 30
0.0
 40
4.8865234374999993
  1
DRAWN
 41
0.7
 11
145.19999999999999
 21
-355.40696656250009
 31
0.0
 73
     3
  0
TEXT
  5
37
  8
HIBINO-BASE
 62
     7
 10
70.199999999999989
 20
-360.29349000000008
 30
0.0
 40
4.8865234374999993
  1
DATE
 41
0.7
 11
70.199999999999989
 21
-355.40696656250009
 31
0.0
 73
     3
  0
TEXT
  5
38
  8
HIBINO-BASE
 62
     7
 10
40.200000000000003
 20
-360.29349000000008
 30
0.0
 40
4.8865234374999993
  1
SCALE
 41
0.7
 11
40.200000000000003
 21
-355.40696656250009
 31
0.0
 73
     3
  0
TEXT
  5
39
  8
HIBINO-BASE
 62
     7
 10
107.7
 20
-360.29349000000008
 30
0.0
 40
4.8865234374999993
  1
DESIGN
 41
0.7
 11
107.7
 21
-355.40696656250009
 31
0.0
 73
     3
  0
TEXT
  5
3A
  8
HIBINO-BASE
 62
     7
 10
220.19999999999999
 20
-360.29349000000008
 30
0.0
 40
4.8865234374999993
  1
DRAWING NO.
 41
0.7
 11
220.19999999999999
 21
-355.40696656250009
 31
0.0
 73
     3
  0
TEXT
  5
3B
  8
HIBINO-BASE
 62
     7
 10
182.69999999999999
 20
-360.29349000000008
 30
0.0
 40
4.8865234374999993
  1
CHECK
 41
0.7
 11
182.69999999999999
 21
-355.40696656250009
 31
0.0
 73
     3
  0
LINE
  5
3C
  8
HIBINO-BASE
  6
CONTINUOUS
 62
     7
 10
43.125000000000021
 20
-379.18637000000001
 30
0.0
 11
54.375000000000071
 21
-367.93637000000001
 31
0.0
  0
TEXT
  5
3D
  8
HIBINO-BASE
 62
     7
 10
41.250000000000007
 20
-371.2632000000001
 30
0.0
 40
4.8865234374999993
  1
1
 41
0.7
 11
41.250000000000007
 21
-366.37667656250011
 31
0.0
 73
     3
  0
LINE
  5
3E
  8
HIBINO-BASE
  6
CONTINUOUS
 62
     7
 10
37.500000000000021
 20
-382.93637000000001
 30
0.0
 11
37.500000000000021
 21
-352.93637000000001
 31
0.0
  0
LINE
  5
3F
  8
HIBINO-BASE
  6
CONTINUOUS
 62
     7
 10
67.499999999999972
 20
-382.93637000000001
 30
0.0
 11
67.499999999999972
 21
-352.93637000000001
 31
0.0
  0
LINE
  5
40
  8
HIBINO-BASE
  6
CONTINUOUS
 62
     7
 10
142.49999999999989
 20
-352.93637000000001
 30
0.0
 11
142.49999999999989
 21
-382.93637000000001
 31
0.0
  0
LINE
  5
41
  8
HIBINO-BASE
  6
CONTINUOUS
 62
     7
 10
217.50000000000011
 20
-352.93637000000001
 30
0.0
 11
217.50000000000011
 21
-382.93637000000001
 31
0.0
  0
LINE
  5
42
  8
HIBINO-BASE
  6
CONTINUOUS
 62
     7
 10
179.99999999999989
 20
-382.93637000000001
 30
0.0
 11
179.99999999999989
 21
-352.93637000000001
 31
0.0
  0
TEXT
  5
43
  8
HIBINO-BASE
 62
     7
 10
70.069620000000043
 20
-374.34543000000002
 30
0.0
 40
4.8865234374999993
  1
'12.12.
 41
0.7
 11
70.069620000000043
 21
-369.45890656249998
 31
0.0
 73
     3
  0
TEXT
  5
44
  8
HIBINO-BASE
 62
     7
 10
52.500000000000021
 20
-376.88819999999998
 30
0.0
 40
4.8865234374999993
  1
3
 41
0.7
 11
52.500000000000021
 21
-372.00167656249999
 31
0.0
 73
     3
  0
TEXT
  5
45
  8
HIBINO-BASE
 62
     7
 10
147.01743003310381
 20
-374.34543000000002
 30
0.0
 40
4.8865234374999993
  1
N.Sasaki
 41
0.7
 11
147.01743003310381
 21
-369.45890656249998
 31
0.0
 73
     3
  0
TEXT
  5
46
  8
HIBINO-BASE
 62
     7
 10
11.65000000000008
 20
-377.00837000000001
 30
0.0
 40
9.7730468749999986
  1
A4
 41
0.7
 11
11.65000000000008
 21
-367.23532312499998
 31
0.0
 73
     3
  0
TEXT
  5
47
  8
HIBINO-BASE
 62
     7
 10
2.8750000000000062
 20
-360.794735
 30
0.0
 40
4.8865234374999993
  1
PAPER SIZE
 41
0.7
 11
2.8750000000000071
 21
-355.90821156250001
 31
0.0
 73
     3
  0
TEXT
  5
48
  8
HIBINO-BASE
 62
     7
 10
-248.44799999999989
 20
-402.1624033999999
 30
0.0
 40
10.800132539062499
  1
Hibino Corporation
 41
0.7
 11
-248.44799999999989
 21
-391.36227086093749
 31
0.0
 73
     3
  0
TEXT
  5
49
  8
HIBINO-BASE
 62
     7
 10
150.20517000000001
 20
-402.1624033999999
 30
0.0
 40
10.800132539062499
  1
ヒビノ株式会社
 41
0.7
 11
150.20517000000001
 21
-391.36227086093749
 31
0.0
 73
     3
  0
LINE
  5
4A
  8
SPEC
  6
CONTINUOUS
 62
     7
 10
-247.49999999999989
 20
367.06362999999999
 30
0.0
 11
195.00000000000011
 21
367.06362999999999
 31
0.0
  0
LINE
  5
4B
  8
SPEC
  6
CONTINUOUS
 62
     7
 10
-247.49999999999989
 20
355.81362999999999
 30
0.0
 11
195.00000000000011
 21
355.81362999999999
 31
0.0
  0
LINE
  5
4C
  8
SPEC
  6
CONTINUOUS
 62
     7
 10
-247.49999999999989
 20
333.31362999999999
 30
0.0
 11
195.00000000000011
 21
333.31362999999999
 31
0.0
  0
LINE
  5
4D
  8
SPEC
  6
CONTINUOUS
 62
     7
 10
-247.49999999999989
 20
344.56362999999999
 30
0.0
 11
195.00000000000011
 21
344.56362999999999
 31
0.0
  0
LINE
  5
4E
  8
SPEC
  6
CONTINUOUS
 62
     7
 10
-247.49999999999989
 20
367.06362999999999
 30
0.0
 11
-247.49999999999989
 21
333.31362999999999
 31
0.0
  0
TEXT
  5
4F
  8
SPEC
 62
     7
 10
-243.74999999999989
 20
371.24343999999979
 30
0.0
 40
7.3297851562499989
  1
仕様
 41
0.7
 11
-243.74999999999989
 21
378.57322515624992
 31
0.0
 73
     3
  0
LINE
  5
50
  8
SPEC
  6
CONTINUOUS
 62
     7
 10
-149.99999999999989
 20
367.06362999999999
 30
0.0
 11
-149.99999999999989
 21
333.31362999999999
 31
0.0
  0
LINE
  5
51
  8
SPEC
  6
CONTINUOUS
 62
     7
 10
195.00000000000011
 20
367.06362999999999
 30
0.0
 11
195.00000000000011
 21
333.31362999999999
 31
0.0
  0
TEXT
  5
52
  8
SPEC
 62
     7
 10
-244.80000000000001
 20
335.67739
 30
0.0
 40
5.7009440104166673
  1
付属品
 41
0.7
 11
-244.80000000000001
 21
341.37833401041672
 31
0.0
 73
     3
  0
TEXT
  5
53
  8
SPEC
 62
     7
 10
-244.80000000000001
 20
358.17738999999978
 30
0.0
 40
5.7009440104166673
  1
寸法（\U+03C6\U+00D7全長)
 41
0.7
 11
-244.80000000000001
 21
363.87833401041649
 31
0.0
 73
     3
  0
TEXT
  5
54
  8
SPEC
 62
     7
 10
-244.80000000000001
 20
346.92739
 30
0.0
 40
5.7009440104166673
  1
重量
 41
0.7
 11
-244.80000000000001
 21
352.62833401041672
 31
0.0
 73
     3
  0
TEXT
  5
55
  8
SPEC
 62
     7
 10
-147.2999999999999
 20
335.67739
 30
0.0
 40
5.7009440104166673
  1
ライトリング
 41
0.7
 11
-147.2999999999999
 21
341.37833401041672
 31
0.0
 73
     3
  0
TEXT
  5
56
  8
SPEC
 62
     7
 10
-147.2999999999999
 20
358.17738999999978
 30
0.0
 40
5.7009440104166673
  1
\U+03C619.0\U+00D7497.5mm
 41
0.7
 11
-147.2999999999999
 21
363.87833401041649
 31
0.0
 73
     3
  0
TEXT
  5
57
  8
SPEC
 62
     7
 10
-147.2999999999999
 20
346.92739
 30
0.0
 40
5.7009440104166673
  1
120g
 41
0.7
 11
-147.2999999999999
 21
352.62833401041672
 31
0.0
 73
     3
  0
TEXT
  5
58
  8
DIMNSIONS
 62
     7
 10
-59.999999999999979
 20
-346.12790000000001
 30
0.0
 40
7.3297851562499989
  1
(単位：mm)
 41
0.7
 11
-59.999999999999979
 21
-338.79811484374989
 31
0.0
 73
     3
  0
LINE
  5
59
  8
DIMNSIONS
  6
CONTINUOUS
 62
     7
 10
-80.100000000000037
 20
257.5
 30
0.0
 11
-111.0
 21
257.5
 31
0.0
  0
LINE
  5
5A
  8
DIMNSIONS
  6
CONTINUOUS
 62
     7
 10
-79.465000000000032
 20
167.0
 30
0.0
 11
-111.0
 21
167.0
 31
0.0
  0
LINE
  5
5B
  8
DIMNSIONS
  6
CONTINUOUS
 62
     7
 10
-105.0
 20
257.5
 30
0.0
 11
-105.0
 21
167.0
 31
0.0
  0
LINE
  5
5C
  8
DIMNSIONS
  6
CONTINUOUS
 62
     7
 10
-105.0
 20
257.5
 30
0.0
 11
-102.98988061454931
 21
249.9981323242188
 31
0.0
  0
LINE
  5
5D
  8
DIMNSIONS
  6
CONTINUOUS
 62
     7
 10
-105.0
 20
257.5
 30
0.0
 11
-107.01011938545069
 21
249.9981323242188
 31
0.0
  0
LINE
  5
5E
  8
DIMNSIONS
  6
CONTINUOUS
 62
     7
 10
-105.0
 20
167.0
 30
0.0
 11
-107.01011938545069
 21
174.5018676757812
 31
0.0
  0
LINE
  5
5F
  8
DIMNSIONS
  6
CONTINUOUS
 62
     7
 10
-105.0
 20
167.0
 30
0.0
 11
-102.98988061454931
 21
174.5018676757812
 31
0.0
  0
TEXT
  5
60
  8
DIMNSIONS
 62
     7
 10
-108.4816666666666
 20
201.66666666666671
 30
0.0
 40
8.1442057291666661
  1
90.5
 50
90.0
 41
0.7
 11
-116.6258723958333
 21
201.66666666666671
 31
0.0
 73
     3
  0
LINE
  5
61
  8
DIMNSIONS
  6
CONTINUOUS
 62
     7
 10
-80.100000000000037
 20
257.5
 30
0.0
 11
-126.0
 21
257.5
 31
0.0
  0
LINE
  5
62
  8
DIMNSIONS
  6
CONTINUOUS
 62
     7
 10
-81.544000000000096
 20
-240.0
 30
0.0
 11
-126.0
 21
-240.0
 31
0.0
  0
LINE
  5
63
  8
DIMNSIONS
  6
CONTINUOUS
 62
     7
 10
-120.0
 20
257.5
 30
0.0
 11
-120.0
 21
-240.0
 31
0.0
  0
LINE
  5
64
  8
DIMNSIONS
  6
CONTINUOUS
 62
     7
 10
-120.0
 20
257.5
 30
0.0
 11
-117.98988061454931
 21
249.9981323242188
 31
0.0
  0
LINE
  5
65
  8
DIMNSIONS
  6
CONTINUOUS
 62
     7
 10
-120.0
 20
257.5
 30
0.0
 11
-122.01011938545069
 21
249.9981323242188
 31
0.0
  0
LINE
  5
66
  8
DIMNSIONS
  6
CONTINUOUS
 62
     7
 10
-120.0
 20
-240.0
 30
0.0
 11
-122.01011938545069
 21
-232.49813232421869
 31
0.0
  0
LINE
  5
67
  8
DIMNSIONS
  6
CONTINUOUS
 62
     7
 10
-120.0
 20
-240.0
 30
0.0
 11
-117.98988061454931
 21
-232.49813232421869
 31
0.0
  0
TEXT
  5
68
  8
DIMNSIONS
 62
     7
 10
-122.9816666666667
 20
-4.4791666666666501
 30
0.0
 40
8.1442057291666661
  1
497.5
 50
90.0
 41
0.7
 11
-131.12587239583331
 21
-4.4791666666666492
 31
0.0
 73
     3
  0
LINE
  5
69
  8
DIMNSIONS
  6
CONTINUOUS
 62
     7
 10
-79.465000000000032
 20
167.0
 30
0.0
 11
-111.0
 21
167.0
 31
0.0
  0
LINE
  5
6A
  8
DIMNSIONS
  6
CONTINUOUS
 62
     7
 10
-79.465000000000032
 20
-108.0
 30
0.0
 11
-111.0
 21
-108.0
 31
0.0
  0
LINE
  5
6B
  8
DIMNSIONS
  6
CONTINUOUS
 62
     7
 10
-105.0
 20
167.0
 30
0.0
 11
-105.0
 21
-108.0
 31
0.0
  0
LINE
  5
6C
  8
DIMNSIONS
  6
CONTINUOUS
 62
     7
 10
-105.0
 20
167.0
 30
0.0
 11
-102.98988061454931
 21
159.49813232421869
 31
0.0
  0
LINE
  5
6D
  8
DIMNSIONS
  6
CONTINUOUS
 62
     7
 10
-105.0
 20
167.0
 30
0.0
 11
-107.01011938545069
 21
159.49813232421869
 31
0.0
  0
LINE
  5
6E
  8
DIMNSIONS
  6
CONTINUOUS
 62
     7
 10
-105.0
 20
-108.0
 30
0.0
 11
-107.01011938545069
 21
-100.4981323242187
 31
0.0
  0
LINE
  5
6F
  8
DIMNSIONS
  6
CONTINUOUS
 62
     7
 10
-105.0
 20
-108.0
 30
0.0
 11
-102.98988061454931
 21
-100.4981323242187
 31
0.0
  0
TEXT
  5
70
  8
DIMNSIONS
 62
     7
 10
-107.9816666666666
 20
16.270833333333329
 30
0.0
 40
8.1442057291666661
  1
275.0
 50
90.0
 41
0.7
 11
-116.1258723958333
 21
16.270833333333329
 31
0.0
 73
     3
  0
LINE
  5
71
  8
DIMNSIONS
  6
CONTINUOUS
 62
     7
 10
-81.544000000000096
 20
-240.0
 30
0.0
 11
-111.0
 21
-240.0
 31
0.0
  0
LINE
  5
72
  8
DIMNSIONS
  6
CONTINUOUS
 62
     7
 10
-79.465000000000032
 20
-108.0
 30
0.0
 11
-111.0
 21
-108.0
 31
0.0
  0
LINE
  5
73
  8
DIMNSIONS
  6
CONTINUOUS
 62
     7
 10
-105.0
 20
-240.0
 30
0.0
 11
-105.0
 21
-108.0
 31
0.0
  0
LINE
  5
74
  8
DIMNSIONS
  6
CONTINUOUS
 62
     7
 10
-105.0
 20
-240.0
 30
0.0
 11
-107.01011938545069
 21
-232.49813232421869
 31
0.0
  0
LINE
  5
75
  8
DIMNSIONS
  6
CONTINUOUS
 62
     7
 10
-105.0
 20
-240.0
 30
0.0
 11
-102.98988061454931
 21
-232.49813232421869
 31
0.0
  0
LINE
  5
76
  8
DIMNSIONS
  6
CONTINUOUS
 62
     7
 10
-105.0
 20
-108.0
 30
0.0
 11
-102.98988061454931
 21
-115.5018676757813
 31
0.0
  0
LINE
  5
77
  8
DIMNSIONS
  6
CONTINUOUS
 62
     7
 10
-105.0
 20
-108.0
 30
0.0
 11
-107.01011938545069
 21
-115.5018676757813
 31
0.0
  0
TEXT
  5
78
  8
DIMNSIONS
 62
     7
 10
-107.9816666666666
 20
-187.2291666666666
 30
0.0
 40
8.1442057291666661
  1
132.0
 50
90.0
 41
0.7
 11
-116.1258723958333
 21
-187.2291666666666
 31
0.0
 73
     3
  0
LINE
  5
79
  8
DIMNSIONS
  6
CONTINUOUS
 62
     7
 10
78.5
 20
253.30000000000001
 30
0.0
 11
64.0
 21
253.30000000000001
 31
0.0
  0
LINE
  5
7A
  8
DIMNSIONS
  6
CONTINUOUS
 62
     7
 10
78.500000003725305
 20
246.90000000000001
 30
0.0
 11
64.0
 21
246.90000000000001
 31
0.0
  0
LINE
  5
7B
  8
DIMNSIONS
  6
CONTINUOUS
 62
     7
 10
70.0
 20
246.90000000000001
 30
0.0
 11
70.0
 21
253.30000000000001
 31
0.0
  0
LINE
  5
7C
  8
DIMNSIONS
  6
CONTINUOUS
 62
     7
 10
70.0
 20
253.30000000000001
 30
0.0
 11
70.0
 21
268.30000000000001
 31
0.0
  0
LINE
  5
7D
  8
DIMNSIONS
  6
CONTINUOUS
 62
     7
 10
70.0
 20
253.30000000000001
 30
0.0
 11
67.98988061454925
 21
260.80186767578118
 31
0.0
  0
LINE
  5
7E
  8
DIMNSIONS
  6
CONTINUOUS
 62
     7
 10
70.0
 20
253.30000000000001
 30
0.0
 11
72.010119385450736
 21
260.80186767578118
 31
0.0
  0
LINE
  5
7F
  8
DIMNSIONS
  6
CONTINUOUS
 62
     7
 10
70.0
 20
246.90000000000001
 30
0.0
 11
70.0
 21
231.90000000000001
 31
0.0
  0
LINE
  5
80
  8
DIMNSIONS
  6
CONTINUOUS
 62
     7
 10
70.0
 20
246.90000000000001
 30
0.0
 11
72.010119385450736
 21
239.39813232421869
 31
0.0
  0
LINE
  5
81
  8
DIMNSIONS
  6
CONTINUOUS
 62
     7
 10
70.0
 20
246.90000000000001
 30
0.0
 11
67.98988061454925
 21
239.39813232421869
 31
0.0
  0
TEXT
  5
82
  8
DIMNSIONS
 62
     7
 10
67.518333333333331
 20
247.45416666666671
 30
0.0
 40
8.1442057291666661
  1
6
 50
90.0
 41
0.7
 11
59.374127604166659
 21
247.45416666666671
 31
0.0
 73
     3
  0
LINE
  5
83
  8
DIMNSIONS
  6
CONTINUOUS
 62
     7
 10
96.198774692816926
 20
275.86748353812197
 30
0.0
 11
105.0
 21
270.0
 31
0.0
  0
LINE
  5
84
  8
DIMNSIONS
  6
CONTINUOUS
 62
     7
 10
96.198774692816926
 20
275.86748353812197
 30
0.0
 11
103.58515979947271
 21
273.4675015330082
 31
0.0
  0
LINE
  5
85
  8
DIMNSIONS
  6
CONTINUOUS
 62
     7
 10
96.198774692816926
 20
275.86748353812197
 30
0.0
 11
101.3955808347589
 21
270.09584559974002
 31
0.0
  0
LINE
  5
86
  8
DIMNSIONS
  6
CONTINUOUS
 62
     7
 10
105.0
 20
270.0
 30
0.0
 11
132.1666666666666
 21
270.0
 31
0.0
  0
TEXT
  5
87
  8
DIMNSIONS
 62
     7
 10
111.0
 20
272.48166666666651
 30
0.0
 40
8.1442057291666661
  1
\U+03C615
 41
0.7
 11
111.0
 21
280.6258723958332
 31
0.0
 73
     3
  0
LINE
  5
88
  8
DIMNSIONS
  6
CONTINUOUS
 62
     7
 10
-66.782664145601203
 20
286.78266414560119
 30
0.0
 11
-60.0
 21
280.0
 31
0.0
  0
LINE
  5
89
  8
DIMNSIONS
  6
CONTINUOUS
 62
     7
 10
-66.782664145601203
 20
286.78266414560119
 30
0.0
 11
-59.989925892812501
 21
283.01738784793099
 31
0.0
  0
LINE
  5
8A
  8
DIMNSIONS
  6
CONTINUOUS
 62
     7
 10
-66.782664145601203
 20
286.78266414560119
 30
0.0
 11
-62.782618406262969
 21
280.12547009315699
 31
0.0
  0
LINE
  5
8B
  8
DIMNSIONS
  6
CONTINUOUS
 62
     7
 10
-60.0
 20
280.0
 30
0.0
 11
-27.541666666666679
 21
280.0
 31
0.0
  0
TEXT
  5
8C
  8
DIMNSIONS
 62
     7
 10
-54.000000000000007
 20
282.48166666666663
 30
0.0
 40
8.1442057291666661
  1
\U+03C69.1
 41
0.7
 11
-54.000000000000007
 21
290.6258723958332
 31
0.0
 73
     3
  0
LINE
  5
8D
  8
DIMNSIONS
  6
CONTINUOUS
 62
     7
 10
-63.453400337292003
 20
-276.88418716016531
 30
0.0
 11
-55.0
 21
-285.77350269189623
 31
0.0
  0
LINE
  5
8E
  8
DIMNSIONS
  6
CONTINUOUS
 62
     7
 10
-63.453400337292003
 20
-276.88418716016531
 30
0.0
 11
-56.796206284847791
 21
-280.8842328995035
 31
0.0
  0
LINE
  5
8F
  8
DIMNSIONS
  6
CONTINUOUS
 62
     7
 10
-63.453400337292003
 20
-276.88418716016531
 30
0.0
 11
-59.688124039621748
 21
-283.67692541295389
 31
0.0
  0
LINE
  5
90
  8
DIMNSIONS
  6
CONTINUOUS
 62
     7
 10
-55.0
 20
-285.77350269189623
 30
0.0
 11
-17.25
 21
-285.77350269189623
 31
0.0
  0
TEXT
  5
91
  8
DIMNSIONS
 62
     7
 10
-49.0
 20
-283.2918360252296
 30
0.0
 40
8.1442057291666661
  1
\U+03C619.0
 41
0.7
 11
-49.0
 21
-275.14763029606291
 31
0.0
 73
     3
  0
LINE
  5
92
  8
DIMNSIONS
  6
CONTINUOUS
 62
     7
 10
-59.450000000000067
 20
253.19999999999999
 30
0.0
 11
-29.0
 21
253.19999999999999
 31
0.0
  0
LINE
  5
93
  8
DIMNSIONS
  6
CONTINUOUS
 62
     7
 10
-54.5
 20
-235.0
 30
0.0
 11
-29.0
 21
-235.0
 31
0.0
  0
LINE
  5
94
  8
DIMNSIONS
  6
CONTINUOUS
 62
     7
 10
-35.0
 20
253.19999999999999
 30
0.0
 11
-35.0
 21
-235.0
 31
0.0
  0
LINE
  5
95
  8
DIMNSIONS
  6
CONTINUOUS
 62
     7
 10
-35.0
 20
253.19999999999999
 30
0.0
 11
-32.989880614549271
 21
245.6981323242187
 31
0.0
  0
LINE
  5
96
  8
DIMNSIONS
  6
CONTINUOUS
 62
     7
 10
-35.0
 20
253.19999999999999
 30
0.0
 11
-37.010119385450729
 21
245.6981323242187
 31
0.0
  0
LINE
  5
97
  8
DIMNSIONS
  6
CONTINUOUS
 62
     7
 10
-35.0
 20
-235.0
 30
0.0
 11
-37.010119385450729
 21
-227.4981323242188
 31
0.0
  0
LINE
  5
98
  8
DIMNSIONS
  6
CONTINUOUS
 62
     7
 10
-35.0
 20
-235.0
 30
0.0
 11
-32.989880614549271
 21
-227.4981323242188
 31
0.0
  0
TEXT
  5
99
  8
DIMNSIONS
 62
     7
 10
-37.981666909530801
 20
1.162498486042016
 30
0.0
 40
8.1442070641061974
  1
488
 50
90.0
 41
0.7
 11
-46.125873973636992
 21
1.1624984860420171
 31
0.0
 73
     3
  0
TEXT
  5
9A
  8
DATA
 62
     7
 10
-262.5
 20
-359.30753666666669
 30
0.0
 40
5.7009440104166673
  1
※仕様及び外観は予告なく変更されることがあります。
 41
0.7
 11
-262.5
 21
-353.60659265625009
 31
0.0
 73
     3
  0
TEXT
  5
9B
  8
DATA
 62
     7
 10
-262.5
 20
-366.71586999999988
 30
0.0
 40
5.7009440104166673
  1
　また、同一商品でも若干の個体差があることがあります。ご了承ください。
 41
0.7
 11
-262.5
 21
-361.01492598958328
 31
0.0
 73
     3
  0
LINE
  5
9C
  8
DATA
  6
CONTINUOUS
 62
     7
 10
-67.029999999999973
 20
-108.0
 30
0.0
 11
-67.029999999999973
 21
-167.19999999999999
 31
0.0
  0
LINE
  5
9D
  8
DATA
  6
CONTINUOUS
 62
     7
 10
-72.970000000000013
 20
-108.0
 30
0.0
 11
-72.970000000000013
 21
-167.19999999999999
 31
0.0
  0
LINE
  5
9E
  8
DATA
  6
CONTINUOUS
 62
     7
 10
-67.029999999999973
 20
-165.75200000000001
 30
0.0
 11
-72.970000000000013
 21
-166.42699999999991
 31
0.0
  0
LINE
  5
9F
  8
DATA
  6
CONTINUOUS
 62
     7
 10
-67.029999999999973
 20
-165.25700000000001
 30
0.0
 11
-72.970000000000013
 21
-165.9319999999999
 31
0.0
  0
LINE
  5
A0
  8
DATA
  6
CONTINUOUS
 62
     7
 10
-67.029999999999973
 20
-163.77199999999999
 30
0.0
 11
-72.970000000000013
 21
-164.447
 31
0.0
  0
LINE
  5
A1
  8
DATA
  6
CONTINUOUS
 62
     7
 10
-67.029999999999973
 20
-163.27699999999999
 30
0.0
 11
-72.970000000000013
 21
-163.952
 31
0.0
  0
LINE
  5
A2
  8
DATA
  6
CONTINUOUS
 62
     7
 10
-67.029999999999973
 20
-161.79199999999989
 30
0.0
 11
-72.970000000000013
 21
-162.46700000000001
 31
0.0
  0
LINE
  5
A3
  8
DATA
  6
CONTINUOUS
 62
     7
 10
-67.029999999999973
 20
-161.29699999999991
 30
0.0
 11
-72.970000000000013
 21
-161.97200000000001
 31
0.0
  0
LINE
  5
A4
  8
DATA
  6
CONTINUOUS
 62
     7
 10
-67.029999999999973
 20
-159.81200000000001
 30
0.0
 11
-72.970000000000013
 21
-160.48699999999999
 31
0.0
  0
LINE
  5
A5
  8
DATA
  6
CONTINUOUS
 62
     7
 10
-67.029999999999973
 20
-159.31700000000001
 30
0.0
 11
-72.970000000000013
 21
-159.99199999999999
 31
0.0
  0
LINE
  5
A6
  8
DATA
  6
CONTINUOUS
 62
     7
 10
-67.029999999999973
 20
-157.83199999999999
 30
0.0
 11
-72.970000000000013
 21
-158.50699999999989
 31
0.0
  0
LINE
  5
A7
  8
DATA
  6
CONTINUOUS
 62
     7
 10
-67.029999999999973
 20
-157.33699999999999
 30
0.0
 11
-72.970000000000013
 21
-158.01199999999989
 31
0.0
  0
LINE
  5
A8
  8
DATA
  6
CONTINUOUS
 62
     7
 10
-67.029999999999973
 20
-155.852
 30
0.0
 11
-72.970000000000013
 21
-156.52699999999999
 31
0.0
  0
LINE
  5
A9
  8
DATA
  6
CONTINUOUS
 62
     7
 10
-67.029999999999973
 20
-155.357
 30
0.0
 11
-72.970000000000013
 21
-156.03200000000001
 31
0.0
  0
LINE
  5
AA
  8
DATA
  6
CONTINUOUS
 62
     7
 10
-67.029999999999973
 20
-153.87200000000001
 30
0.0
 11
-72.970000000000013
 21
-154.547
 31
0.0
  0
LINE
  5
AB
  8
DATA
  6
CONTINUOUS
 62
     7
 10
-67.029999999999973
 20
-153.37700000000001
 30
0.0
 11
-72.970000000000013
 21
-154.05199999999999
 31
0.0
  0
LINE
  5
AC
  8
DATA
  6
CONTINUOUS
 62
     7
 10
-67.029999999999973
 20
-151.892
 30
0.0
 11
-72.970000000000013
 21
-152.56699999999989
 31
0.0
  0
LINE
  5
AD
  8
DATA
  6
CONTINUOUS
 62
     7
 10
-67.029999999999973
 20
-151.39699999999999
 30
0.0
 11
-72.970000000000013
 21
-152.072
 31
0.0
  0
LINE
  5
AE
  8
DATA
  6
CONTINUOUS
 62
     7
 10
-67.029999999999973
 20
-149.91200000000001
 30
0.0
 11
-72.970000000000013
 21
-150.58699999999999
 31
0.0
  0
LINE
  5
AF
  8
DATA
  6
CONTINUOUS
 62
     7
 10
-67.029999999999973
 20
-149.417
 30
0.0
 11
-72.970000000000013
 21
-150.09200000000001
 31
0.0
  0
LINE
  5
B0
  8
DATA
  6
CONTINUOUS
 62
     7
 10
-67.029999999999973
 20
-147.93199999999999
 30
0.0
 11
-72.970000000000013
 21
-148.607
 31
0.0
  0
LINE
  5
B1
  8
DATA
  6
CONTINUOUS
 62
     7
 10
-67.029999999999973
 20
-147.4369999999999
 30
0.0
 11
-72.970000000000013
 21
-148.11199999999999
 31
0.0
  0
LINE
  5
B2
  8
DATA
  6
CONTINUOUS
 62
     7
 10
-67.029999999999973
 20
-145.952
 30
0.0
 11
-72.970000000000013
 21
-146.6269999999999
 31
0.0
  0
LINE
  5
B3
  8
DATA
  6
CONTINUOUS
 62
     7
 10
-67.029999999999973
 20
-145.45699999999999
 30
0.0
 11
-72.970000000000013
 21
-146.13199999999989
 31
0.0
  0
LINE
  5
B4
  8
DATA
  6
CONTINUOUS
 62
     7
 10
-67.029999999999973
 20
-143.97200000000001
 30
0.0
 11
-72.970000000000013
 21
-144.64699999999999
 31
0.0
  0
LINE
  5
B5
  8
DATA
  6
CONTINUOUS
 62
     7
 10
-67.029999999999973
 20
-143.477
 30
0.0
 11
-72.970000000000013
 21
-144.15199999999999
 31
0.0
  0
LINE
  5
B6
  8
DATA
  6
CONTINUOUS
 62
     7
 10
-67.029999999999973
 20
-141.99199999999999
 30
0.0
 11
-72.970000000000013
 21
-142.667
 31
0.0
  0
LINE
  5
B7
  8
DATA
  6
CONTINUOUS
 62
     7
 10
-67.029999999999973
 20
-141.49700000000001
 30
0.0
 11
-72.970000000000013
 21
-142.172
 31
0.0
  0
LINE
  5
B8
  8
DATA
  6
CONTINUOUS
 62
     7
 10
-67.029999999999973
 20
-140.012
 30
0.0
 11
-72.970000000000013
 21
-140.68700000000001
 31
0.0
  0
LINE
  5
B9
  8
DATA
  6
CONTINUOUS
 62
     7
 10
-67.029999999999973
 20
-139.517
 30
0.0
 11
-72.970000000000013
 21
-140.19200000000001
 31
0.0
  0
LINE
  5
BA
  8
DATA
  6
CONTINUOUS
 62
     7
 10
-67.029999999999973
 20
-138.03200000000001
 30
0.0
 11
-72.970000000000013
 21
-138.70699999999999
 31
0.0
  0
LINE
  5
BB
  8
DATA
  6
CONTINUOUS
 62
     7
 10
-67.029999999999973
 20
-137.53700000000001
 30
0.0
 11
-72.970000000000013
 21
-138.21199999999999
 31
0.0
  0
LINE
  5
BC
  8
DATA
  6
CONTINUOUS
 62
     7
 10
-67.029999999999973
 20
-136.05199999999999
 30
0.0
 11
-72.970000000000013
 21
-136.727
 31
0.0
  0
LINE
  5
BD
  8
DATA
  6
CONTINUOUS
 62
     7
 10
-67.029999999999973
 20
-135.55699999999999
 30
0.0
 11
-72.970000000000013
 21
-136.232
 31
0.0
  0
LINE
  5
BE
  8
DATA
  6
CONTINUOUS
 62
     7
 10
-67.029999999999973
 20
-134.072
 30
0.0
 11
-72.970000000000013
 21
-134.74700000000001
 31
0.0
  0
LINE
  5
BF
  8
DATA
  6
CONTINUOUS
 62
     7
 10
-67.029999999999973
 20
-133.577
 30
0.0
 11
-72.970000000000013
 21
-134.25200000000001
 31
0.0
  0
LINE
  5
C0
  8
DATA
  6
CONTINUOUS
 62
     7
 10
-67.029999999999973
 20
-132.09200000000001
 30
0.0
 11
-72.970000000000013
 21
-132.767
 31
0.0
  0
LINE
  5
C1
  8
DATA
  6
CONTINUOUS
 62
     7
 10
-67.029999999999973
 20
-131.59700000000001
 30
0.0
 11
-72.970000000000013
 21
-132.27199999999999
 31
0.0
  0
LINE
  5
C2
  8
DATA
  6
CONTINUOUS
 62
     7
 10
-67.029999999999973
 20
-130.11199999999999
 30
0.0
 11
-72.970000000000013
 21
-130.78700000000001
 31
0.0
  0
LINE
  5
C3
  8
DATA
  6
CONTINUOUS
 62
     7
 10
-67.029999999999973
 20
-129.61699999999999
 30
0.0
 11
-72.970000000000013
 21
-130.292
 31
0.0
  0
LINE
  5
C4
  8
DATA
  6
CONTINUOUS
 62
     7
 10
-67.029999999999973
 20
-128.13200000000001
 30
0.0
 11
-72.970000000000013
 21
-128.80699999999999
 31
0.0
  0
LINE
  5
C5
  8
DATA
  6
CONTINUOUS
 62
     7
 10
-67.029999999999973
 20
-127.637
 30
0.0
 11
-72.970000000000013
 21
-128.31200000000001
 31
0.0
  0
LINE
  5
C6
  8
DATA
  6
CONTINUOUS
 62
     7
 10
-67.029999999999973
 20
-126.152
 30
0.0
 11
-72.970000000000013
 21
-126.8269999999999
 31
0.0
  0
LINE
  5
C7
  8
DATA
  6
CONTINUOUS
 62
     7
 10
-67.029999999999973
 20
-125.657
 30
0.0
 11
-72.970000000000013
 21
-126.33199999999989
 31
0.0
  0
LINE
  5
C8
  8
DATA
  6
CONTINUOUS
 62
     7
 10
-67.029999999999973
 20
-124.172
 30
0.0
 11
-72.970000000000013
 21
-124.84699999999999
 31
0.0
  0
LINE
  5
C9
  8
DATA
  6
CONTINUOUS
 62
     7
 10
-67.029999999999973
 20
-123.67700000000001
 30
0.0
 11
-72.970000000000013
 21
-124.352
 31
0.0
  0
LINE
  5
CA
  8
DATA
  6
CONTINUOUS
 62
     7
 10
-67.029999999999973
 20
-122.19199999999999
 30
0.0
 11
-72.970000000000013
 21
-122.867
 31
0.0
  0
LINE
  5
CB
  8
DATA
  6
CONTINUOUS
 62
     7
 10
-67.029999999999973
 20
-121.697
 30
0.0
 11
-72.970000000000013
 21
-122.372
 31
0.0
  0
LINE
  5
CC
  8
DATA
  6
CONTINUOUS
 62
     7
 10
-67.029999999999973
 20
-120.212
 30
0.0
 11
-72.970000000000013
 21
-120.887
 31
0.0
  0
LINE
  5
CD
  8
DATA
  6
CONTINUOUS
 62
     7
 10
-67.029999999999973
 20
-119.717
 30
0.0
 11
-72.970000000000013
 21
-120.392
 31
0.0
  0
LINE
  5
CE
  8
DATA
  6
CONTINUOUS
 62
     7
 10
-67.029999999999973
 20
-118.232
 30
0.0
 11
-72.970000000000013
 21
-118.907
 31
0.0
  0
LINE
  5
CF
  8
DATA
  6
CONTINUOUS
 62
     7
 10
-67.029999999999973
 20
-117.73699999999999
 30
0.0
 11
-72.970000000000013
 21
-118.41200000000001
 31
0.0
  0
LINE
  5
D0
  8
DATA
  6
CONTINUOUS
 62
     7
 10
-67.029999999999973
 20
-116.252
 30
0.0
 11
-72.970000000000013
 21
-116.92700000000001
 31
0.0
  0
LINE
  5
D1
  8
DATA
  6
CONTINUOUS
 62
     7
 10
-67.029999999999973
 20
-115.75700000000001
 30
0.0
 11
-72.970000000000013
 21
-116.432
 31
0.0
  0
LINE
  5
D2
  8
DATA
  6
CONTINUOUS
 62
     7
 10
-67.029999999999973
 20
-114.27200000000001
 30
0.0
 11
-72.970000000000013
 21
-114.947
 31
0.0
  0
LINE
  5
D3
  8
DATA
  6
CONTINUOUS
 62
     7
 10
-67.029999999999973
 20
-113.777
 30
0.0
 11
-72.970000000000013
 21
-114.452
 31
0.0
  0
LINE
  5
D4
  8
DATA
  6
CONTINUOUS
 62
     7
 10
-67.029999999999973
 20
-112.292
 30
0.0
 11
-72.970000000000013
 21
-112.967
 31
0.0
  0
LINE
  5
D5
  8
DATA
  6
CONTINUOUS
 62
     7
 10
-67.029999999999973
 20
-111.797
 30
0.0
 11
-72.970000000000013
 21
-112.47199999999999
 31
0.0
  0
LINE
  5
D6
  8
DATA
  6
CONTINUOUS
 62
     7
 10
-67.029999999999973
 20
-110.312
 30
0.0
 11
-72.970000000000013
 21
-110.98699999999999
 31
0.0
  0
LINE
  5
D7
  8
DATA
  6
CONTINUOUS
 62
     7
 10
-67.029999999999973
 20
-109.81699999999999
 30
0.0
 11
-72.970000000000013
 21
-110.492
 31
0.0
  0
LINE
  5
D8
  8
DATA
  6
CONTINUOUS
 62
     7
 10
-67.029999999999973
 20
-108.33199999999999
 30
0.0
 11
-72.970000000000013
 21
-109.00700000000001
 31
0.0
  0
LINE
  5
D9
  8
DATA
  6
CONTINUOUS
 62
     7
 10
-68.464399999999856
 20
-108.0
 30
0.0
 11
-72.970000000000013
 21
-108.512
 31
0.0
  0
LINE
  5
DA
  8
DATA
  6
CONTINUOUS
 62
     7
 10
12.970000000000139
 20
-108.0
 30
0.0
 11
12.970000000000139
 21
-167.19999999999999
 31
0.0
  0
LINE
  5
DB
  8
DATA
  6
CONTINUOUS
 62
     7
 10
7.0300000000000864
 20
-108.0
 30
0.0
 11
7.0300000000000864
 21
-167.19999999999999
 31
0.0
  0
LINE
  5
DC
  8
DATA
  6
CONTINUOUS
 62
     7
 10
12.970000000000139
 20
-165.75200000000001
 30
0.0
 11
7.0300000000000864
 21
-166.42699999999999
 31
0.0
  0
LINE
  5
DD
  8
DATA
  6
CONTINUOUS
 62
     7
 10
12.970000000000139
 20
-165.25700000000001
 30
0.0
 11
7.0300000000000864
 21
-165.93199999999999
 31
0.0
  0
LINE
  5
DE
  8
DATA
  6
CONTINUOUS
 62
     7
 10
12.970000000000139
 20
-163.77199999999999
 30
0.0
 11
7.0300000000000864
 21
-164.447
 31
0.0
  0
LINE
  5
DF
  8
DATA
  6
CONTINUOUS
 62
     7
 10
12.970000000000139
 20
-163.27699999999999
 30
0.0
 11
7.0300000000000864
 21
-163.952
 31
0.0
  0
LINE
  5
E0
  8
DATA
  6
CONTINUOUS
 62
     7
 10
12.970000000000139
 20
-161.792
 30
0.0
 11
7.0300000000000864
 21
-162.4670000000001
 31
0.0
  0
LINE
  5
E1
  8
DATA
  6
CONTINUOUS
 62
     7
 10
12.970000000000139
 20
-161.297
 30
0.0
 11
7.0300000000000864
 21
-161.97200000000009
 31
0.0
  0
LINE
  5
E2
  8
DATA
  6
CONTINUOUS
 62
     7
 10
12.970000000000139
 20
-159.81200000000001
 30
0.0
 11
7.0300000000000864
 21
-160.48699999999999
 31
0.0
  0
LINE
  5
E3
  8
DATA
  6
CONTINUOUS
 62
     7
 10
12.970000000000139
 20
-159.31700000000001
 30
0.0
 11
7.0300000000000864
 21
-159.99199999999999
 31
0.0
  0
LINE
  5
E4
  8
DATA
  6
CONTINUOUS
 62
     7
 10
12.970000000000139
 20
-157.83199999999999
 30
0.0
 11
7.0300000000000864
 21
-158.50700000000001
 31
0.0
  0
LINE
  5
E5
  8
DATA
  6
CONTINUOUS
 62
     7
 10
12.970000000000139
 20
-157.33699999999999
 30
0.0
 11
7.0300000000000864
 21
-158.012
 31
0.0
  0
LINE
  5
E6
  8
DATA
  6
CONTINUOUS
 62
     7
 10
12.970000000000139
 20
-155.852
 30
0.0
 11
7.0300000000000864
 21
-156.52699999999999
 31
0.0
  0
LINE
  5
E7
  8
DATA
  6
CONTINUOUS
 62
     7
 10
12.970000000000139
 20
-155.357
 30
0.0
 11
7.0300000000000864
 21
-156.03200000000001
 31
0.0
  0
LINE
  5
E8
  8
DATA
  6
CONTINUOUS
 62
     7
 10
12.970000000000139
 20
-153.87200000000001
 30
0.0
 11
7.0300000000000864
 21
-154.547
 31
0.0
  0
LINE
  5
E9
  8
DATA
  6
CONTINUOUS
 62
     7
 10
12.970000000000139
 20
-153.37700000000001
 30
0.0
 11
7.0300000000000864
 21
-154.05199999999999
 31
0.0
  0
LINE
  5
EA
  8
DATA
  6
CONTINUOUS
 62
     7
 10
12.970000000000139
 20
-151.892
 30
0.0
 11
7.0300000000000864
 21
-152.56700000000001
 31
0.0
  0
LINE
  5
EB
  8
DATA
  6
CONTINUOUS
 62
     7
 10
12.970000000000139
 20
-151.39699999999999
 30
0.0
 11
7.0300000000000864
 21
-152.072
 31
0.0
  0
LINE
  5
EC
  8
DATA
  6
CONTINUOUS
 62
     7
 10
12.970000000000139
 20
-149.91200000000001
 30
0.0
 11
7.0300000000000864
 21
-150.58699999999999
 31
0.0
  0
LINE
  5
ED
  8
DATA
  6
CONTINUOUS
 62
     7
 10
12.970000000000139
 20
-149.417
 30
0.0
 11
7.0300000000000864
 21
-150.09200000000001
 31
0.0
  0
LINE
  5
EE
  8
DATA
  6
CONTINUOUS
 62
     7
 10
12.970000000000139
 20
-147.93199999999999
 30
0.0
 11
7.0300000000000864
 21
-148.607
 31
0.0
  0
LINE
  5
EF
  8
DATA
  6
CONTINUOUS
 62
     7
 10
12.970000000000139
 20
-147.43700000000001
 30
0.0
 11
7.0300000000000864
 21
-148.11199999999999
 31
0.0
  0
LINE
  5
F0
  8
DATA
  6
CONTINUOUS
 62
     7
 10
12.970000000000139
 20
-145.952
 30
0.0
 11
7.0300000000000864
 21
-146.62700000000001
 31
0.0
  0
LINE
  5
F1
  8
DATA
  6
CONTINUOUS
 62
     7
 10
12.970000000000139
 20
-145.45699999999999
 30
0.0
 11
7.0300000000000864
 21
-146.13200000000001
 31
0.0
  0
LINE
  5
F2
  8
DATA
  6
CONTINUOUS
 62
     7
 10
12.970000000000139
 20
-143.97200000000001
 30
0.0
 11
7.0300000000000864
 21
-144.64699999999999
 31
0.0
  0
LINE
  5
F3
  8
DATA
  6
CONTINUOUS
 62
     7
 10
12.970000000000139
 20
-143.477
 30
0.0
 11
7.0300000000000864
 21
-144.15199999999999
 31
0.0
  0
LINE
  5
F4
  8
DATA
  6
CONTINUOUS
 62
     7
 10
12.970000000000139
 20
-141.99199999999999
 30
0.0
 11
7.0300000000000864
 21
-142.667
 31
0.0
  0
LINE
  5
F5
  8
DATA
  6
CONTINUOUS
 62
     7
 10
12.970000000000139
 20
-141.49700000000001
 30
0.0
 11
7.0300000000000864
 21
-142.172
 31
0.0
  0
LINE
  5
F6
  8
DATA
  6
CONTINUOUS
 62
     7
 10
12.970000000000139
 20
-140.012
 30
0.0
 11
7.0300000000000864
 21
-140.68700000000001
 31
0.0
  0
LINE
  5
F7
  8
DATA
  6
CONTINUOUS
 62
     7
 10
12.970000000000139
 20
-139.517
 30
0.0
 11
7.0300000000000864
 21
-140.19200000000001
 31
0.0
  0
LINE
  5
F8
  8
DATA
  6
CONTINUOUS
 62
     7
 10
12.970000000000139
 20
-138.03200000000001
 30
0.0
 11
7.0300000000000864
 21
-138.70699999999999
 31
0.0
  0
LINE
  5
F9
  8
DATA
  6
CONTINUOUS
 62
     7
 10
12.970000000000139
 20
-137.53700000000001
 30
0.0
 11
7.0300000000000864
 21
-138.21199999999999
 31
0.0
  0
LINE
  5
FA
  8
DATA
  6
CONTINUOUS
 62
     7
 10
12.970000000000139
 20
-136.05199999999999
 30
0.0
 11
7.0300000000000864
 21
-136.727
 31
0.0
  0
LINE
  5
FB
  8
DATA
  6
CONTINUOUS
 62
     7
 10
12.970000000000139
 20
-135.55699999999999
 30
0.0
 11
7.0300000000000864
 21
-136.232
 31
0.0
  0
LINE
  5
FC
  8
DATA
  6
CONTINUOUS
 62
     7
 10
12.970000000000139
 20
-134.072
 30
0.0
 11
7.0300000000000864
 21
-134.74700000000001
 31
0.0
  0
LINE
  5
FD
  8
DATA
  6
CONTINUOUS
 62
     7
 10
12.970000000000139
 20
-133.577
 30
0.0
 11
7.0300000000000864
 21
-134.25200000000001
 31
0.0
  0
LINE
  5
FE
  8
DATA
  6
CONTINUOUS
 62
     7
 10
12.970000000000139
 20
-132.09200000000001
 30
0.0
 11
7.0300000000000864
 21
-132.767
 31
0.0
  0
LINE
  5
FF
  8
DATA
  6
CONTINUOUS
 62
     7
 10
12.970000000000139
 20
-131.59700000000001
 30
0.0
 11
7.0300000000000864
 21
-132.27199999999999
 31
0.0
  0
LINE
  5
100
  8
DATA
  6
CONTINUOUS
 62
     7
 10
12.970000000000139
 20
-130.11199999999999
 30
0.0
 11
7.0300000000000864
 21
-130.78700000000001
 31
0.0
  0
LINE
  5
101
  8
DATA
  6
CONTINUOUS
 62
     7
 10
12.970000000000139
 20
-129.61699999999999
 30
0.0
 11
7.0300000000000864
 21
-130.292
 31
0.0
  0
LINE
  5
102
  8
DATA
  6
CONTINUOUS
 62
     7
 10
12.970000000000139
 20
-128.13200000000001
 30
0.0
 11
7.0300000000000864
 21
-128.80699999999999
 31
0.0
  0
LINE
  5
103
  8
DATA
  6
CONTINUOUS
 62
     7
 10
12.970000000000139
 20
-127.637
 30
0.0
 11
7.0300000000000864
 21
-128.31200000000001
 31
0.0
  0
LINE
  5
104
  8
DATA
  6
CONTINUOUS
 62
     7
 10
12.970000000000139
 20
-126.152
 30
0.0
 11
7.0300000000000864
 21
-126.827
 31
0.0
  0
LINE
  5
105
  8
DATA
  6
CONTINUOUS
 62
     7
 10
12.970000000000139
 20
-125.657
 30
0.0
 11
7.0300000000000864
 21
-126.33199999999999
 31
0.0
  0
LINE
  5
106
  8
DATA
  6
CONTINUOUS
 62
     7
 10
12.970000000000139
 20
-124.172
 30
0.0
 11
7.0300000000000864
 21
-124.84699999999999
 31
0.0
  0
LINE
  5
107
  8
DATA
  6
CONTINUOUS
 62
     7
 10
12.970000000000139
 20
-123.67700000000001
 30
0.0
 11
7.0300000000000864
 21
-124.352
 31
0.0
  0
LINE
  5
108
  8
DATA
  6
CONTINUOUS
 62
     7
 10
12.970000000000139
 20
-122.19199999999999
 30
0.0
 11
7.0300000000000864
 21
-122.867
 31
0.0
  0
LINE
  5
109
  8
DATA
  6
CONTINUOUS
 62
     7
 10
12.970000000000139
 20
-121.697
 30
0.0
 11
7.0300000000000864
 21
-122.372
 31
0.0
  0
LINE
  5
10A
  8
DATA
  6
CONTINUOUS
 62
     7
 10
12.970000000000139
 20
-120.212
 30
0.0
 11
7.0300000000000864
 21
-120.887
 31
0.0
  0
LINE
  5
10B
  8
DATA
  6
CONTINUOUS
 62
     7
 10
12.970000000000139
 20
-119.717
 30
0.0
 11
7.0300000000000864
 21
-120.392
 31
0.0
  0
LINE
  5
10C
  8
DATA
  6
CONTINUOUS
 62
     7
 10
12.970000000000139
 20
-118.232
 30
0.0
 11
7.0300000000000864
 21
-118.907
 31
0.0
  0
LINE
  5
10D
  8
DATA
  6
CONTINUOUS
 62
     7
 10
12.970000000000139
 20
-117.73699999999999
 30
0.0
 11
7.0300000000000864
 21
-118.41200000000001
 31
0.0
  0
LINE
  5
10E
  8
DATA
  6
CONTINUOUS
 62
     7
 10
12.970000000000139
 20
-116.252
 30
0.0
 11
7.0300000000000864
 21
-116.92700000000001
 31
0.0
  0
LINE
  5
10F
  8
DATA
  6
CONTINUOUS
 62
     7
 10
12.970000000000139
 20
-115.75700000000001
 30
0.0
 11
7.0300000000000864
 21
-116.432
 31
0.0
  0
LINE
  5
110
  8
DATA
  6
CONTINUOUS
 62
     7
 10
12.970000000000139
 20
-114.27200000000001
 30
0.0
 11
7.0300000000000864
 21
-114.947
 31
0.0
  0
LINE
  5
111
  8
DATA
  6
CONTINUOUS
 62
     7
 10
12.970000000000139
 20
-113.777
 30
0.0
 11
7.0300000000000864
 21
-114.452
 31
0.0
  0
LINE
  5
112
  8
DATA
  6
CONTINUOUS
 62
     7
 10
12.970000000000139
 20
-112.292
 30
0.0
 11
7.0300000000000864
 21
-112.967
 31
0.0
  0
LINE
  5
113
  8
DATA
  6
CONTINUOUS
 62
     7
 10
12.970000000000139
 20
-111.797
 30
0.0
 11
7.0300000000000864
 21
-112.47199999999999
 31
0.0
  0
LINE
  5
114
  8
DATA
  6
CONTINUOUS
 62
     7
 10
12.970000000000139
 20
-110.312
 30
0.0
 11
7.0300000000000864
 21
-110.98699999999999
 31
0.0
  0
LINE
  5
115
  8
DATA
  6
CONTINUOUS
 62
     7
 10
12.970000000000139
 20
-109.81699999999999
 30
0.0
 11
7.0300000000000864
 21
-110.492
 31
0.0
  0
TEXT
  5
116
  8
DATA
 62
     7
 10
149.99999999999989
 20
-349.54369999999989
 30
0.0
 40
7.3297851562499989
  1
GN50 M
 41
0.7
 11
149.99999999999989
 21
-342.21391484374988
 31
0.0
 73
     3
  0
TEXT
  5
117
  8
DATA
 62
     7
 10
149.99999999999989
 20
-327.7937
 30
0.0
 40
7.3297851562499989
  1
AKG
 41
0.7
 11
149.99999999999989
 21
-320.46391484374988
 31
0.0
 73
     3
  0
TEXT
  5
118
  8
DATA
 62
     7
 10
142.49999999999989
 20
-338.2245650000001
 30
0.0
 40
4.8865234374999993
  1
グースネック・モジュール
 41
0.7
 11
142.49999999999989
 21
-333.33804156250011
 31
0.0
 73
     3
  0
LINE
  5
119
  8
DATA
  6
CONTINUOUS
 62
     7
 10
-73.465000000000032
 20
167.0
 30
0.0
 11
-73.465000000000032
 21
-108.0
 31
0.0
  0
LINE
  5
11A
  8
DATA
  6
CONTINUOUS
 62
     7
 10
-66.535000000000082
 20
167.0
 30
0.0
 11
-66.535000000000082
 21
-108.0
 31
0.0
  0
LINE
  5
11B
  8
DATA
  6
CONTINUOUS
 62
     7
 10
6.535000000000081
 20
167.0
 30
0.0
 11
6.535000000000081
 21
-108.0
 31
0.0
  0
LINE
  5
11C
  8
DATA
  6
CONTINUOUS
 62
     7
 10
13.46500000000003
 20
167.0
 30
0.0
 11
13.46500000000003
 21
-108.0
 31
0.0
  0
LINE
  5
11D
  8
DATA
  6
CONTINUOUS
 62
     7
 10
-73.465000000000032
 20
167.0
 30
0.0
 11
-66.535000000000082
 21
167.0
 31
0.0
  0
LINE
  5
11E
  8
DATA
  6
CONTINUOUS
 62
     7
 10
-67.029999999999973
 20
232.203
 30
0.0
 11
-67.029999999999973
 21
167.0
 31
0.0
  0
LINE
  5
11F
  8
DATA
  6
CONTINUOUS
 62
     7
 10
-72.970000000000013
 20
232.203
 30
0.0
 11
-72.970000000000013
 21
167.0
 31
0.0
  0
LINE
  5
120
  8
DATA
  6
CONTINUOUS
 62
     7
 10
-67.029999999999973
 20
168.44800000000001
 30
0.0
 11
-72.970000000000013
 21
167.773
 31
0.0
  0
LINE
  5
121
  8
DATA
  6
CONTINUOUS
 62
     7
 10
-67.029999999999973
 20
168.94300000000001
 30
0.0
 11
-72.970000000000013
 21
168.268
 31
0.0
  0
LINE
  5
122
  8
DATA
  6
CONTINUOUS
 62
     7
 10
-67.029999999999973
 20
170.428
 30
0.0
 11
-72.970000000000013
 21
169.75299999999999
 31
0.0
  0
LINE
  5
123
  8
DATA
  6
CONTINUOUS
 62
     7
 10
-67.029999999999973
 20
170.923
 30
0.0
 11
-72.970000000000013
 21
170.24799999999999
 31
0.0
  0
LINE
  5
124
  8
DATA
  6
CONTINUOUS
 62
     7
 10
-67.029999999999973
 20
172.40799999999999
 30
0.0
 11
-72.970000000000013
 21
171.733
 31
0.0
  0
LINE
  5
125
  8
DATA
  6
CONTINUOUS
 62
     7
 10
-67.029999999999973
 20
172.90299999999999
 30
0.0
 11
-72.970000000000013
 21
172.22800000000001
 31
0.0
  0
LINE
  5
126
  8
DATA
  6
CONTINUOUS
 62
     7
 10
-67.029999999999973
 20
174.38800000000001
 30
0.0
 11
-72.970000000000013
 21
173.71299999999999
 31
0.0
  0
LINE
  5
127
  8
DATA
  6
CONTINUOUS
 62
     7
 10
-67.029999999999973
 20
174.88300000000001
 30
0.0
 11
-72.970000000000013
 21
174.208
 31
0.0
  0
LINE
  5
128
  8
DATA
  6
CONTINUOUS
 62
     7
 10
-67.029999999999973
 20
176.36799999999999
 30
0.0
 11
-72.970000000000013
 21
175.69300000000001
 31
0.0
  0
LINE
  5
129
  8
DATA
  6
CONTINUOUS
 62
     7
 10
-67.029999999999973
 20
176.863
 30
0.0
 11
-72.970000000000013
 21
176.18799999999999
 31
0.0
  0
LINE
  5
12A
  8
DATA
  6
CONTINUOUS
 62
     7
 10
-67.029999999999973
 20
178.34800000000001
 30
0.0
 11
-72.970000000000013
 21
177.673
 31
0.0
  0
LINE
  5
12B
  8
DATA
  6
CONTINUOUS
 62
     7
 10
-67.029999999999973
 20
178.84299999999999
 30
0.0
 11
-72.970000000000013
 21
178.16800000000001
 31
0.0
  0
LINE
  5
12C
  8
DATA
  6
CONTINUOUS
 62
     7
 10
-67.029999999999973
 20
180.328
 30
0.0
 11
-72.970000000000013
 21
179.65299999999999
 31
0.0
  0
LINE
  5
12D
  8
DATA
  6
CONTINUOUS
 62
     7
 10
-67.029999999999973
 20
180.82300000000001
 30
0.0
 11
-72.970000000000013
 21
180.148
 31
0.0
  0
LINE
  5
12E
  8
DATA
  6
CONTINUOUS
 62
     7
 10
-67.029999999999973
 20
182.30799999999999
 30
0.0
 11
-72.970000000000013
 21
181.63300000000001
 31
0.0
  0
LINE
  5
12F
  8
DATA
  6
CONTINUOUS
 62
     7
 10
-67.029999999999973
 20
182.803
 30
0.0
 11
-72.970000000000013
 21
182.12799999999999
 31
0.0
  0
LINE
  5
130
  8
DATA
  6
CONTINUOUS
 62
     7
 10
-67.029999999999973
 20
184.28800000000001
 30
0.0
 11
-72.970000000000013
 21
183.613
 31
0.0
  0
LINE
  5
131
  8
DATA
  6
CONTINUOUS
 62
     7
 10
-67.029999999999973
 20
184.78299999999999
 30
0.0
 11
-72.970000000000013
 21
184.108
 31
0.0
  0
LINE
  5
132
  8
DATA
  6
CONTINUOUS
 62
     7
 10
-67.029999999999973
 20
186.268
 30
0.0
 11
-72.970000000000013
 21
185.59299999999999
 31
0.0
  0
LINE
  5
133
  8
DATA
  6
CONTINUOUS
 62
     7
 10
-67.029999999999973
 20
186.76300000000001
 30
0.0
 11
-72.970000000000013
 21
186.08799999999999
 31
0.0
  0
LINE
  5
134
  8
DATA
  6
CONTINUOUS
 62
     7
 10
-67.029999999999973
 20
188.24799999999999
 30
0.0
 11
-72.970000000000013
 21
187.57300000000001
 31
0.0
  0
LINE
  5
135
  8
DATA
  6
CONTINUOUS
 62
     7
 10
-67.029999999999973
 20
188.74299999999999
 30
0.0
 11
-72.970000000000013
 21
188.06800000000001
 31
0.0
  0
LINE
  5
136
  8
DATA
  6
CONTINUOUS
 62
     7
 10
-67.029999999999973
 20
190.22800000000001
 30
0.0
 11
-72.970000000000013
 21
189.553
 31
0.0
  0
LINE
  5
137
  8
DATA
  6
CONTINUOUS
 62
     7
 10
-67.029999999999973
 20
190.72300000000001
 30
0.0
 11
-72.970000000000013
 21
190.048
 31
0.0
  0
LINE
  5
138
  8
DATA
  6
CONTINUOUS
 62
     7
 10
-67.029999999999973
 20
192.20800000000011
 30
0.0
 11
-72.970000000000013
 21
191.53299999999999
 31
0.0
  0
LINE
  5
139
  8
DATA
  6
CONTINUOUS
 62
     7
 10
-67.029999999999973
 20
192.70300000000009
 30
0.0
 11
-72.970000000000013
 21
192.02799999999999
 31
0.0
  0
LINE
  5
13A
  8
DATA
  6
CONTINUOUS
 62
     7
 10
-67.029999999999973
 20
194.18799999999999
 30
0.0
 11
-72.970000000000013
 21
193.51300000000001
 31
0.0
  0
LINE
  5
13B
  8
DATA
  6
CONTINUOUS
 62
     7
 10
-67.029999999999973
 20
194.68299999999999
 30
0.0
 11
-72.970000000000013
 21
194.00800000000001
 31
0.0
  0
LINE
  5
13C
  8
DATA
  6
CONTINUOUS
 62
     7
 10
-67.029999999999973
 20
196.16799999999989
 30
0.0
 11
-72.970000000000013
 21
195.49299999999999
 31
0.0
  0
LINE
  5
13D
  8
DATA
  6
CONTINUOUS
 62
     7
 10
-67.029999999999973
 20
196.6629999999999
 30
0.0
 11
-72.970000000000013
 21
195.988
 31
0.0
  0
LINE
  5
13E
  8
DATA
  6
CONTINUOUS
 62
     7
 10
-67.029999999999973
 20
198.148
 30
0.0
 11
-72.970000000000013
 21
197.47300000000001
 31
0.0
  0
LINE
  5
13F
  8
DATA
  6
CONTINUOUS
 62
     7
 10
-67.029999999999973
 20
198.643
 30
0.0
 11
-72.970000000000013
 21
197.96799999999999
 31
0.0
  0
LINE
  5
140
  8
DATA
  6
CONTINUOUS
 62
     7
 10
-67.029999999999973
 20
200.12799999999999
 30
0.0
 11
-72.970000000000013
 21
199.453
 31
0.0
  0
LINE
  5
141
  8
DATA
  6
CONTINUOUS
 62
     7
 10
-67.029999999999973
 20
200.62299999999999
 30
0.0
 11
-72.970000000000013
 21
199.94800000000001
 31
0.0
  0
LINE
  5
142
  8
DATA
  6
CONTINUOUS
 62
     7
 10
-67.029999999999973
 20
202.108
 30
0.0
 11
-72.970000000000013
 21
201.43300000000011
 31
0.0
  0
LINE
  5
143
  8
DATA
  6
CONTINUOUS
 62
     7
 10
-67.029999999999973
 20
202.60300000000001
 30
0.0
 11
-72.970000000000013
 21
201.928
 31
0.0
  0
LINE
  5
144
  8
DATA
  6
CONTINUOUS
 62
     7
 10
-67.029999999999973
 20
204.08799999999999
 30
0.0
 11
-72.970000000000013
 21
203.41300000000001
 31
0.0
  0
LINE
  5
145
  8
DATA
  6
CONTINUOUS
 62
     7
 10
-67.029999999999973
 20
204.583
 30
0.0
 11
-72.970000000000013
 21
203.90799999999999
 31
0.0
  0
LINE
  5
146
  8
DATA
  6
CONTINUOUS
 62
     7
 10
-67.029999999999973
 20
206.06800000000001
 30
0.0
 11
-72.970000000000013
 21
205.393
 31
0.0
  0
LINE
  5
147
  8
DATA
  6
CONTINUOUS
 62
     7
 10
-67.029999999999973
 20
206.56299999999999
 30
0.0
 11
-72.970000000000013
 21
205.88800000000001
 31
0.0
  0
LINE
  5
148
  8
DATA
  6
CONTINUOUS
 62
     7
 10
-67.029999999999973
 20
208.048
 30
0.0
 11
-72.970000000000013
 21
207.37299999999999
 31
0.0
  0
LINE
  5
149
  8
DATA
  6
CONTINUOUS
 62
     7
 10
-67.029999999999973
 20
208.54300000000001
 30
0.0
 11
-72.970000000000013
 21
207.86799999999999
 31
0.0
  0
LINE
  5
14A
  8
DATA
  6
CONTINUOUS
 62
     7
 10
-67.029999999999973
 20
210.02799999999999
 30
0.0
 11
-72.970000000000013
 21
209.35300000000001
 31
0.0
  0
LINE
  5
14B
  8
DATA
  6
CONTINUOUS
 62
     7
 10
-67.029999999999973
 20
210.523
 30
0.0
 11
-72.970000000000013
 21
209.84800000000001
 31
0.0
  0
LINE
  5
14C
  8
DATA
  6
CONTINUOUS
 62
     7
 10
-67.029999999999973
 20
212.00800000000001
 30
0.0
 11
-72.970000000000013
 21
211.333
 31
0.0
  0
LINE
  5
14D
  8
DATA
  6
CONTINUOUS
 62
     7
 10
-67.029999999999973
 20
212.50299999999999
 30
0.0
 11
-72.970000000000013
 21
211.828
 31
0.0
  0
LINE
  5
14E
  8
DATA
  6
CONTINUOUS
 62
     7
 10
-67.029999999999973
 20
213.988
 30
0.0
 11
-72.970000000000013
 21
213.31299999999999
 31
0.0
  0
LINE
  5
14F
  8
DATA
  6
CONTINUOUS
 62
     7
 10
-67.029999999999973
 20
214.483
 30
0.0
 11
-72.970000000000013
 21
213.80799999999999
 31
0.0
  0
LINE
  5
150
  8
DATA
  6
CONTINUOUS
 62
     7
 10
-67.029999999999973
 20
215.96799999999999
 30
0.0
 11
-72.970000000000013
 21
215.29300000000001
 31
0.0
  0
LINE
  5
151
  8
DATA
  6
CONTINUOUS
 62
     7
 10
-67.029999999999973
 20
216.46299999999999
 30
0.0
 11
-72.970000000000013
 21
215.78800000000001
 31
0.0
  0
LINE
  5
152
  8
DATA
  6
CONTINUOUS
 62
     7
 10
-67.029999999999973
 20
217.94800000000001
 30
0.0
 11
-72.970000000000013
 21
217.273
 31
0.0
  0
LINE
  5
153
  8
DATA
  6
CONTINUOUS
 62
     7
 10
-67.029999999999973
 20
218.44300000000001
 30
0.0
 11
-72.970000000000013
 21
217.768
 31
0.0
  0
LINE
  5
154
  8
DATA
  6
CONTINUOUS
 62
     7
 10
-67.029999999999973
 20
219.928
 30
0.0
 11
-72.970000000000013
 21
219.25299999999999
 31
0.0
  0
LINE
  5
155
  8
DATA
  6
CONTINUOUS
 62
     7
 10
-67.029999999999973
 20
220.423
 30
0.0
 11
-72.970000000000013
 21
219.74799999999999
 31
0.0
  0
LINE
  5
156
  8
DATA
  6
CONTINUOUS
 62
     7
 10
-67.029999999999973
 20
221.90799999999999
 30
0.0
 11
-72.970000000000013
 21
221.233
 31
0.0
  0
LINE
  5
157
  8
DATA
  6
CONTINUOUS
 62
     7
 10
-67.029999999999973
 20
222.40299999999999
 30
0.0
 11
-72.970000000000013
 21
221.72800000000001
 31
0.0
  0
LINE
  5
158
  8
DATA
  6
CONTINUOUS
 62
     7
 10
-67.029999999999973
 20
223.88800000000001
 30
0.0
 11
-72.970000000000013
 21
223.21299999999999
 31
0.0
  0
LINE
  5
159
  8
DATA
  6
CONTINUOUS
 62
     7
 10
-67.029999999999973
 20
224.38300000000001
 30
0.0
 11
-72.970000000000013
 21
223.708
 31
0.0
  0
LINE
  5
15A
  8
DATA
  6
CONTINUOUS
 62
     7
 10
-67.029999999999973
 20
225.86799999999999
 30
0.0
 11
-72.970000000000013
 21
225.1930000000001
 31
0.0
  0
LINE
  5
15B
  8
DATA
  6
CONTINUOUS
 62
     7
 10
-67.029999999999973
 20
226.363
 30
0.0
 11
-72.970000000000013
 21
225.6880000000001
 31
0.0
  0
LINE
  5
15C
  8
DATA
  6
CONTINUOUS
 62
     7
 10
-67.029999999999973
 20
227.84800000000001
 30
0.0
 11
-72.970000000000013
 21
227.17300000000009
 31
0.0
  0
LINE
  5
15D
  8
DATA
  6
CONTINUOUS
 62
     7
 10
-67.029999999999973
 20
228.34299999999999
 30
0.0
 11
-72.970000000000013
 21
227.66800000000009
 31
0.0
  0
LINE
  5
15E
  8
DATA
  6
CONTINUOUS
 62
     7
 10
-67.029999999999973
 20
229.828
 30
0.0
 11
-72.970000000000013
 21
229.15300000000011
 31
0.0
  0
LINE
  5
15F
  8
DATA
  6
CONTINUOUS
 62
     7
 10
-67.029999999999973
 20
230.32300000000001
 30
0.0
 11
-72.970000000000013
 21
229.64800000000011
 31
0.0
  0
LINE
  5
160
  8
DATA
  6
CONTINUOUS
 62
     7
 10
-67.029999999999973
 20
231.80800000000011
 30
0.0
 11
-72.970000000000013
 21
231.1330000000001
 31
0.0
  0
LINE
  5
161
  8
DATA
  6
CONTINUOUS
 62
     7
 10
-67.910000000000494
 20
232.203
 30
0.0
 11
-72.970000000000013
 21
231.6280000000001
 31
0.0
  0
LINE
  5
162
  8
DATA
  6
CONTINUOUS
 62
     7
 10
6.535000000000081
 20
167.0
 30
0.0
 11
13.46500000000003
 21
167.0
 31
0.0
  0
LINE
  5
163
  8
DATA
  6
CONTINUOUS
 62
     7
 10
12.970000000000139
 20
232.203
 30
0.0
 11
12.970000000000139
 21
167.0
 31
0.0
  0
LINE
  5
164
  8
DATA
  6
CONTINUOUS
 62
     7
 10
7.0300000000000864
 20
232.203
 30
0.0
 11
7.0300000000000864
 21
167.0
 31
0.0
  0
LINE
  5
165
  8
DATA
  6
CONTINUOUS
 62
     7
 10
12.970000000000139
 20
168.44799999999989
 30
0.0
 11
7.0300000000000864
 21
167.773
 31
0.0
  0
LINE
  5
166
  8
DATA
  6
CONTINUOUS
 62
     7
 10
12.970000000000139
 20
168.9429999999999
 30
0.0
 11
7.0300000000000864
 21
168.268
 31
0.0
  0
LINE
  5
167
  8
DATA
  6
CONTINUOUS
 62
     7
 10
12.970000000000139
 20
170.428
 30
0.0
 11
7.0300000000000864
 21
169.75299999999999
 31
0.0
  0
LINE
  5
168
  8
DATA
  6
CONTINUOUS
 62
     7
 10
12.970000000000139
 20
170.923
 30
0.0
 11
7.0300000000000864
 21
170.24799999999999
 31
0.0
  0
LINE
  5
169
  8
DATA
  6
CONTINUOUS
 62
     7
 10
12.970000000000139
 20
172.40799999999999
 30
0.0
 11
7.0300000000000864
 21
171.733
 31
0.0
  0
LINE
  5
16A
  8
DATA
  6
CONTINUOUS
 62
     7
 10
12.970000000000139
 20
172.90299999999999
 30
0.0
 11
7.0300000000000864
 21
172.22800000000001
 31
0.0
  0
LINE
  5
16B
  8
DATA
  6
CONTINUOUS
 62
     7
 10
12.970000000000139
 20
174.38800000000001
 30
0.0
 11
7.0300000000000864
 21
173.71299999999999
 31
0.0
  0
LINE
  5
16C
  8
DATA
  6
CONTINUOUS
 62
     7
 10
12.970000000000139
 20
174.88300000000001
 30
0.0
 11
7.0300000000000864
 21
174.208
 31
0.0
  0
LINE
  5
16D
  8
DATA
  6
CONTINUOUS
 62
     7
 10
12.970000000000139
 20
176.36799999999999
 30
0.0
 11
7.0300000000000864
 21
175.69300000000001
 31
0.0
  0
LINE
  5
16E
  8
DATA
  6
CONTINUOUS
 62
     7
 10
12.970000000000139
 20
176.863
 30
0.0
 11
7.0300000000000864
 21
176.18799999999999
 31
0.0
  0
LINE
  5
16F
  8
DATA
  6
CONTINUOUS
 62
     7
 10
12.970000000000139
 20
178.34800000000001
 30
0.0
 11
7.0300000000000864
 21
177.673
 31
0.0
  0
LINE
  5
170
  8
DATA
  6
CONTINUOUS
 62
     7
 10
12.970000000000139
 20
178.84299999999999
 30
0.0
 11
7.0300000000000864
 21
178.16800000000001
 31
0.0
  0
LINE
  5
171
  8
DATA
  6
CONTINUOUS
 62
     7
 10
12.970000000000139
 20
180.328
 30
0.0
 11
7.0300000000000864
 21
179.65299999999999
 31
0.0
  0
LINE
  5
172
  8
DATA
  6
CONTINUOUS
 62
     7
 10
12.970000000000139
 20
180.82300000000001
 30
0.0
 11
7.0300000000000864
 21
180.148
 31
0.0
  0
LINE
  5
173
  8
DATA
  6
CONTINUOUS
 62
     7
 10
12.970000000000139
 20
182.30799999999999
 30
0.0
 11
7.0300000000000864
 21
181.63300000000001
 31
0.0
  0
LINE
  5
174
  8
DATA
  6
CONTINUOUS
 62
     7
 10
12.970000000000139
 20
182.803
 30
0.0
 11
7.0300000000000864
 21
182.12799999999999
 31
0.0
  0
LINE
  5
175
  8
DATA
  6
CONTINUOUS
 62
     7
 10
12.970000000000139
 20
184.28800000000001
 30
0.0
 11
7.0300000000000864
 21
183.613
 31
0.0
  0
LINE
  5
176
  8
DATA
  6
CONTINUOUS
 62
     7
 10
12.970000000000139
 20
184.78299999999999
 30
0.0
 11
7.0300000000000864
 21
184.108
 31
0.0
  0
LINE
  5
177
  8
DATA
  6
CONTINUOUS
 62
     7
 10
12.970000000000139
 20
186.268
 30
0.0
 11
7.0300000000000864
 21
185.59299999999999
 31
0.0
  0
LINE
  5
178
  8
DATA
  6
CONTINUOUS
 62
     7
 10
12.970000000000139
 20
186.76300000000001
 30
0.0
 11
7.0300000000000864
 21
186.08799999999999
 31
0.0
  0
LINE
  5
179
  8
DATA
  6
CONTINUOUS
 62
     7
 10
12.970000000000139
 20
188.24799999999999
 30
0.0
 11
7.0300000000000864
 21
187.57300000000001
 31
0.0
  0
LINE
  5
17A
  8
DATA
  6
CONTINUOUS
 62
     7
 10
12.970000000000139
 20
188.74299999999999
 30
0.0
 11
7.0300000000000864
 21
188.06800000000001
 31
0.0
  0
LINE
  5
17B
  8
DATA
  6
CONTINUOUS
 62
     7
 10
12.970000000000139
 20
190.22800000000001
 30
0.0
 11
7.0300000000000864
 21
189.553
 31
0.0
  0
LINE
  5
17C
  8
DATA
  6
CONTINUOUS
 62
     7
 10
12.970000000000139
 20
190.72300000000001
 30
0.0
 11
7.0300000000000864
 21
190.048
 31
0.0
  0
LINE
  5
17D
  8
DATA
  6
CONTINUOUS
 62
     7
 10
12.970000000000139
 20
192.20800000000011
 30
0.0
 11
7.0300000000000864
 21
191.53299999999999
 31
0.0
  0
LINE
  5
17E
  8
DATA
  6
CONTINUOUS
 62
     7
 10
12.970000000000139
 20
192.70300000000009
 30
0.0
 11
7.0300000000000864
 21
192.02799999999999
 31
0.0
  0
LINE
  5
17F
  8
DATA
  6
CONTINUOUS
 62
     7
 10
12.970000000000139
 20
194.18799999999999
 30
0.0
 11
7.0300000000000864
 21
193.51300000000001
 31
0.0
  0
LINE
  5
180
  8
DATA
  6
CONTINUOUS
 62
     7
 10
12.970000000000139
 20
194.68299999999999
 30
0.0
 11
7.0300000000000864
 21
194.00800000000001
 31
0.0
  0
LINE
  5
181
  8
DATA
  6
CONTINUOUS
 62
     7
 10
12.970000000000139
 20
196.16799999999989
 30
0.0
 11
7.0300000000000864
 21
195.49299999999999
 31
0.0
  0
LINE
  5
182
  8
DATA
  6
CONTINUOUS
 62
     7
 10
12.970000000000139
 20
196.6629999999999
 30
0.0
 11
7.0300000000000864
 21
195.98800000000011
 31
0.0
  0
LINE
  5
183
  8
DATA
  6
CONTINUOUS
 62
     7
 10
12.970000000000139
 20
198.148
 30
0.0
 11
7.0300000000000864
 21
197.47300000000001
 31
0.0
  0
LINE
  5
184
  8
DATA
  6
CONTINUOUS
 62
     7
 10
12.970000000000139
 20
198.643
 30
0.0
 11
7.0300000000000864
 21
197.96799999999999
 31
0.0
  0
LINE
  5
185
  8
DATA
  6
CONTINUOUS
 62
     7
 10
12.970000000000139
 20
200.12799999999999
 30
0.0
 11
7.0300000000000864
 21
199.453
 31
0.0
  0
LINE
  5
186
  8
DATA
  6
CONTINUOUS
 62
     7
 10
12.970000000000139
 20
200.62299999999999
 30
0.0
 11
7.0300000000000864
 21
199.94800000000001
 31
0.0
  0
LINE
  5
187
  8
DATA
  6
CONTINUOUS
 62
     7
 10
12.970000000000139
 20
202.108
 30
0.0
 11
7.0300000000000864
 21
201.43300000000011
 31
0.0
  0
LINE
  5
188
  8
DATA
  6
CONTINUOUS
 62
     7
 10
12.970000000000139
 20
202.60300000000001
 30
0.0
 11
7.0300000000000864
 21
201.928
 31
0.0
  0
LINE
  5
189
  8
DATA
  6
CONTINUOUS
 62
     7
 10
12.970000000000139
 20
204.08799999999999
 30
0.0
 11
7.0300000000000864
 21
203.41300000000001
 31
0.0
  0
LINE
  5
18A
  8
DATA
  6
CONTINUOUS
 62
     7
 10
12.970000000000139
 20
204.583
 30
0.0
 11
7.0300000000000864
 21
203.90799999999999
 31
0.0
  0
LINE
  5
18B
  8
DATA
  6
CONTINUOUS
 62
     7
 10
12.970000000000139
 20
206.06800000000001
 30
0.0
 11
7.0300000000000864
 21
205.393
 31
0.0
  0
LINE
  5
18C
  8
DATA
  6
CONTINUOUS
 62
     7
 10
12.970000000000139
 20
206.56299999999999
 30
0.0
 11
7.0300000000000864
 21
205.88800000000001
 31
0.0
  0
LINE
  5
18D
  8
DATA
  6
CONTINUOUS
 62
     7
 10
12.970000000000139
 20
208.048
 30
0.0
 11
7.0300000000000864
 21
207.37299999999999
 31
0.0
  0
LINE
  5
18E
  8
DATA
  6
CONTINUOUS
 62
     7
 10
12.970000000000139
 20
208.54300000000001
 30
0.0
 11
7.0300000000000864
 21
207.86799999999999
 31
0.0
  0
LINE
  5
18F
  8
DATA
  6
CONTINUOUS
 62
     7
 10
12.970000000000139
 20
210.02799999999999
 30
0.0
 11
7.0300000000000864
 21
209.35300000000001
 31
0.0
  0
LINE
  5
190
  8
DATA
  6
CONTINUOUS
 62
     7
 10
12.970000000000139
 20
210.523
 30
0.0
 11
7.0300000000000864
 21
209.84800000000001
 31
0.0
  0
LINE
  5
191
  8
DATA
  6
CONTINUOUS
 62
     7
 10
12.970000000000139
 20
212.00800000000001
 30
0.0
 11
7.0300000000000864
 21
211.333
 31
0.0
  0
LINE
  5
192
  8
DATA
  6
CONTINUOUS
 62
     7
 10
12.970000000000139
 20
212.50299999999999
 30
0.0
 11
7.0300000000000864
 21
211.828
 31
0.0
  0
LINE
  5
193
  8
DATA
  6
CONTINUOUS
 62
     7
 10
12.970000000000139
 20
213.988
 30
0.0
 11
7.0300000000000864
 21
213.31299999999999
 31
0.0
  0
LINE
  5
194
  8
DATA
  6
CONTINUOUS
 62
     7
 10
12.970000000000139
 20
214.483
 30
0.0
 11
7.0300000000000864
 21
213.80799999999999
 31
0.0
  0
LINE
  5
195
  8
DATA
  6
CONTINUOUS
 62
     7
 10
12.970000000000139
 20
215.96799999999999
 30
0.0
 11
7.0300000000000864
 21
215.29300000000001
 31
0.0
  0
LINE
  5
196
  8
DATA
  6
CONTINUOUS
 62
     7
 10
12.970000000000139
 20
216.46299999999999
 30
0.0
 11
7.0300000000000864
 21
215.78800000000001
 31
0.0
  0
LINE
  5
197
  8
DATA
  6
CONTINUOUS
 62
     7
 10
12.970000000000139
 20
217.94800000000001
 30
0.0
 11
7.0300000000000864
 21
217.273
 31
0.0
  0
LINE
  5
198
  8
DATA
  6
CONTINUOUS
 62
     7
 10
12.970000000000139
 20
218.44300000000001
 30
0.0
 11
7.0300000000000864
 21
217.768
 31
0.0
  0
LINE
  5
199
  8
DATA
  6
CONTINUOUS
 62
     7
 10
12.970000000000139
 20
219.928
 30
0.0
 11
7.0300000000000864
 21
219.25299999999999
 31
0.0
  0
LINE
  5
19A
  8
DATA
  6
CONTINUOUS
 62
     7
 10
12.970000000000139
 20
220.423
 30
0.0
 11
7.0300000000000864
 21
219.74799999999999
 31
0.0
  0
LINE
  5
19B
  8
DATA
  6
CONTINUOUS
 62
     7
 10
12.970000000000139
 20
221.90799999999999
 30
0.0
 11
7.0300000000000864
 21
221.233
 31
0.0
  0
LINE
  5
19C
  8
DATA
  6
CONTINUOUS
 62
     7
 10
12.970000000000139
 20
222.40299999999999
 30
0.0
 11
7.0300000000000864
 21
221.72800000000001
 31
0.0
  0
LINE
  5
19D
  8
DATA
  6
CONTINUOUS
 62
     7
 10
12.970000000000139
 20
223.88800000000001
 30
0.0
 11
7.0300000000000864
 21
223.21299999999999
 31
0.0
  0
LINE
  5
19E
  8
DATA
  6
CONTINUOUS
 62
     7
 10
12.970000000000139
 20
224.38300000000001
 30
0.0
 11
7.0300000000000864
 21
223.708
 31
0.0
  0
LINE
  5
19F
  8
DATA
  6
CONTINUOUS
 62
     7
 10
12.970000000000139
 20
225.86799999999999
 30
0.0
 11
7.0300000000000864
 21
225.1930000000001
 31
0.0
  0
LINE
  5
1A0
  8
DATA
  6
CONTINUOUS
 62
     7
 10
12.970000000000139
 20
226.363
 30
0.0
 11
7.0300000000000864
 21
225.6880000000001
 31
0.0
  0
LINE
  5
1A1
  8
DATA
  6
CONTINUOUS
 62
     7
 10
12.970000000000139
 20
227.84800000000001
 30
0.0
 11
7.0300000000000864
 21
227.17300000000009
 31
0.0
  0
LINE
  5
1A2
  8
DATA
  6
CONTINUOUS
 62
     7
 10
12.970000000000139
 20
228.34299999999999
 30
0.0
 11
7.0300000000000864
 21
227.66800000000009
 31
0.0
  0
LINE
  5
1A3
  8
DATA
  6
CONTINUOUS
 62
     7
 10
12.970000000000139
 20
229.828
 30
0.0
 11
7.0300000000000864
 21
229.15300000000011
 31
0.0
  0
LINE
  5
1A4
  8
DATA
  6
CONTINUOUS
 62
     7
 10
12.970000000000139
 20
230.32300000000001
 30
0.0
 11
7.0300000000000864
 21
229.64800000000011
 31
0.0
  0
LINE
  5
1A5
  8
DATA
  6
CONTINUOUS
 62
     7
 10
12.970000000000139
 20
231.80800000000011
 30
0.0
 11
7.0300000000000864
 21
231.1330000000001
 31
0.0
  0
LINE
  5
1A6
  8
DATA
  6
CONTINUOUS
 62
     7
 10
12.089999999999611
 20
232.203
 30
0.0
 11
7.0300000000000864
 21
231.6280000000001
 31
0.0
  0
TEXT
  5
1A7
  8
DATA
 62
     7
 10
90.046695963541666
 20
210.63623046875
 30
0.0
 40
8.1442057291666661
  1
ライトリング
 41
0.7
 72
     1
 11
110.0
 21
214.70833333333329
 31
0.0
 73
     2
  0
LINE
  5
1A8
  8
DATA
  6
CONTINUOUS
 62
     7
 10
75.0
 20
205.0
 30
0.0
 11
145.0
 21
205.0
 31
0.0
  0
LINE
  5
1A9
  8
DATA
  6
CONTINUOUS
 62
     7
 10
84.500000000000014
 20
253.30000000000001
 30
0.0
 11
95.5
 21
253.30000000000001
 31
0.0
  0
LINE
  5
1AA
  8
DATA
  6
CONTINUOUS
 62
     7
 10
95.5
 20
253.30000000000001
 30
0.0
 11
95.5
 21
251.80000000000001
 31
0.0
  0
LINE
  5
1AB
  8
DATA
  6
CONTINUOUS
 62
     7
 10
84.500000000000014
 20
253.30000000000001
 30
0.0
 11
84.500000000000014
 21
251.80000000000001
 31
0.0
  0
LINE
  5
1AC
  8
DATA
  6
CONTINUOUS
 62
     7
 10
83.555459750660987
 20
247.82605366578531
 30
0.0
 11
84.099999997764812
 21
247.10000000298021
 31
0.0
  0
LINE
  5
1AD
  8
DATA
  6
CONTINUOUS
 62
     7
 10
84.500000003725305
 20
246.90000000000001
 30
0.0
 11
95.499999996274724
 21
246.90000000000001
 31
0.0
  0
CIRCLE
  5
1AE
  8
DATA
  6
CONTINUOUS
 62
     7
 10
90.0
 20
280.0
 30
0.0
 40
5.5
  0
CIRCLE
  5
1AF
  8
DATA
  6
CONTINUOUS
 62
     7
 10
90.0
 20
280.0
 30
0.0
 40
4.4000000000000332
  0
CIRCLE
  5
1B0
  8
DATA
  6
CONTINUOUS
 62
     7
 10
90.0
 20
280.0
 30
0.0
 40
7.449999999999986
  0
LINE
  5
1B1
  8
DATA
  6
CONTINUOUS
 62
     7
 10
83.050000000000026
 20
251.80000000000001
 30
0.0
 11
96.950000000000003
 21
251.80000000000001
 31
0.0
  0
LINE
  5
1B2
  8
DATA
  6
CONTINUOUS
 62
     7
 10
83.50947797939898
 20
247.90000000000001
 30
0.0
 11
96.490522020601034
 21
247.90000000000001
 31
0.0
  0
ARC
  5
1B3
  8
DATA
  6
CONTINUOUS
 62
     7
 10
83.050000000000026
 20
251.30000000000001
 30
0.0
 40
0.5000000000000285
 50
90.0
 51
195.922327367962
  0
LINE
  5
1B4
  8
DATA
  6
CONTINUOUS
 62
     7
 10
83.474642510239732
 20
247.98888668066829
 30
0.0
 11
82.569182760782994
 21
251.1628330124565
 31
0.0
  0
LINE
  5
1B5
  8
DATA
  6
CONTINUOUS
 62
     7
 10
82.569182760782994
 20
251.1628330124565
 30
0.0
 11
97.430817239216992
 21
251.1628330124565
 31
0.0
  0
LINE
  5
1B6
  8
DATA
  6
CONTINUOUS
 62
     7
 10
96.444540249339013
 20
247.82605366578531
 30
0.0
 11
95.900000002235174
 21
247.10000000298021
 31
0.0
  0
ARC
  5
1B7
  8
DATA
  6
CONTINUOUS
 62
     7
 10
96.950000000000003
 20
251.30000000000001
 30
0.0
 40
0.499999999999999
 50
344.07767263203789
 51
90.000000000000028
  0
LINE
  5
1B8
  8
DATA
  6
CONTINUOUS
 62
     7
 10
96.525357489760282
 20
247.98888668066829
 30
0.0
 11
97.430817239216992
 21
251.1628330124565
 31
0.0
  0
ARC
  5
1B9
  8
DATA
  6
CONTINUOUS
 62
     7
 10
83.955459756621451
 20
248.12605367025569
 30
0.0
 40
0.5000000074505681
 50
195.92232736796581
 51
216.86989764584661
  0
ARC
  5
1BA
  8
DATA
  6
CONTINUOUS
 62
     7
 10
84.500000003725305
 20
247.4000000074505
 30
0.0
 40
0.5000000074505806
 50
216.86989764584399
 51
270.0
  0
ARC
  5
1BB
  8
DATA
  6
CONTINUOUS
 62
     7
 10
96.044540243378563
 20
248.1260536702556
 30
0.0
 40
0.5000000074505637
 50
323.13010235415862
 51
344.07767263204039
  0
ARC
  5
1BC
  8
DATA
  6
CONTINUOUS
 62
     7
 10
95.499999996274724
 20
247.4000000074505
 30
0.0
 40
0.5000000074505806
 50
270.0
 51
323.13010235415612
  0
LINE
  5
1BD
  8
DATA
  6
CONTINUOUS
 62
     7
 10
-64.456000000000017
 20
-235.0
 30
0.0
 11
-64.456000000000017
 21
-240.0
 31
0.0
  0
LINE
  5
1BE
  8
DATA
  6
CONTINUOUS
 62
     7
 10
-75.543999999999983
 20
-235.0
 30
0.0
 11
-75.543999999999983
 21
-240.0
 31
0.0
  0
LINE
  5
1BF
  8
DATA
  6
CONTINUOUS
 62
     7
 10
-64.456000000000017
 20
-240.0
 30
0.0
 11
-75.543999999999983
 21
-240.0
 31
0.0
  0
LINE
  5
1C0
  8
DATA
  6
CONTINUOUS
 62
     7
 10
-68.712999999999965
 20
-240.0
 30
0.0
 11
-68.712999999999965
 21
-235.05000000000001
 31
0.0
  0
LINE
  5
1C1
  8
DATA
  6
CONTINUOUS
 62
     7
 10
-68.712999999999965
 20
-240.0
 30
0.0
 11
-68.712999999999965
 21
-235.0
 31
0.0
  0
LINE
  5
1C2
  8
DATA
  6
CONTINUOUS
 62
     7
 10
-71.287000000000049
 20
-240.0
 30
0.0
 11
-71.287000000000049
 21
-235.0
 31
0.0
  0
LINE
  5
1C3
  8
DATA
  6
CONTINUOUS
 62
     7
 10
15.543999999999979
 20
-235.0
 30
0.0
 11
15.543999999999979
 21
-240.0
 31
0.0
  0
LINE
  5
1C4
  8
DATA
  6
CONTINUOUS
 62
     7
 10
4.4560000000000164
 20
-235.0
 30
0.0
 11
4.4560000000000164
 21
-240.0
 31
0.0
  0
LINE
  5
1C5
  8
DATA
  6
CONTINUOUS
 62
     7
 10
15.543999999999979
 20
-240.0
 30
0.0
 11
4.4560000000000164
 21
-240.0
 31
0.0
  0
LINE
  5
1C6
  8
DATA
  6
CONTINUOUS
 62
     7
 10
-79.5
 20
-235.0
 30
0.0
 11
-60.5
 21
-235.0
 31
0.0
  0
LINE
  5
1C7
  8
DATA
  6
CONTINUOUS
 62
     7
 10
-78.909999999999968
 20
-221.13999999999999
 30
0.0
 11
-61.090000000000032
 21
-221.13999999999999
 31
0.0
  0
LINE
  5
1C8
  8
DATA
  6
CONTINUOUS
 62
     7
 10
-61.090000000000032
 20
-221.13999999999999
 30
0.0
 11
-60.5
 21
-235.0
 31
0.0
  0
LINE
  5
1C9
  8
DATA
  6
CONTINUOUS
 62
     7
 10
-78.909999999999968
 20
-221.13999999999999
 30
0.0
 11
-79.5
 21
-235.0
 31
0.0
  0
LINE
  5
1CA
  8
DATA
  6
CONTINUOUS
 62
     7
 10
-73.712499999999977
 20
-167.19999999999999
 30
0.0
 11
-66.287500000000023
 21
-167.19999999999999
 31
0.0
  0
LINE
  5
1CB
  8
DATA
  6
CONTINUOUS
 62
     7
 10
-65.544999999999959
 20
-187.77699999999999
 30
0.0
 11
-61.090000000000032
 21
-221.13999999999999
 31
0.0
  0
LINE
  5
1CC
  8
DATA
  6
CONTINUOUS
 62
     7
 10
-74.454999999999984
 20
-187.77699999999999
 30
0.0
 11
-78.909999999999968
 21
-221.13999999999999
 31
0.0
  0
LINE
  5
1CD
  8
DATA
  6
CONTINUOUS
 62
     7
 10
-65.544999999999959
 20
-187.77699999999999
 30
0.0
 11
-66.13900000000001
 21
-182.827
 31
0.0
  0
LINE
  5
1CE
  8
DATA
  6
CONTINUOUS
 62
     7
 10
-66.13900000000001
 20
-182.827
 30
0.0
 11
-66.287500000000023
 21
-177.8769999999999
 31
0.0
  0
LINE
  5
1CF
  8
DATA
  6
CONTINUOUS
 62
     7
 10
-66.287500000000023
 20
-177.8769999999999
 30
0.0
 11
-66.287500000000023
 21
-167.19999999999999
 31
0.0
  0
LINE
  5
1D0
  8
DATA
  6
CONTINUOUS
 62
     7
 10
-74.454999999999984
 20
-187.77699999999999
 30
0.0
 11
-73.794020771513303
 21
-182.827
 31
0.0
  0
LINE
  5
1D1
  8
DATA
  6
CONTINUOUS
 62
     7
 10
-73.794020771513303
 20
-182.827
 30
0.0
 11
-73.712499999999977
 21
-177.8769999999999
 31
0.0
  0
LINE
  5
1D2
  8
DATA
  6
CONTINUOUS
 62
     7
 10
-73.712499999999977
 20
-177.8769999999999
 30
0.0
 11
-73.712499999999977
 21
-167.19999999999999
 31
0.0
  0
LINE
  5
1D3
  8
DATA
  6
CONTINUOUS
 62
     7
 10
-69.009999999999991
 20
-235.0
 30
0.0
 11
-69.009999999999991
 21
-221.13999999999999
 31
0.0
  0
LINE
  5
1D4
  8
DATA
  6
CONTINUOUS
 62
     7
 10
-69.009999999999991
 20
-235.0
 30
0.0
 11
-69.009999999999991
 21
-221.13999999999999
 31
0.0
  0
LINE
  5
1D5
  8
DATA
  6
CONTINUOUS
 62
     7
 10
-70.990000000000023
 20
-235.0
 30
0.0
 11
-70.990000000000023
 21
-221.13999999999999
 31
0.0
  0
TEXT
  5
1D6
  8
DATA
 62
     7
 10
-75.871983906249994
 20
-218.79328749999999
 30
0.0
 40
2.750343749999999
  1
GNK50 M
 41
0.7
 72
     1
 11
-70.0
 21
-219.16
 31
0.0
 73
     1
  0
POLYLINE
  5
1D7
  8
DATA
  6
CONTINUOUS
 62
     7
 66
     1
 10
0.0
 20
0.0
 30
0.0
 70
     1
  0
VERTEX
  5
36E
  8
DATA
  6
CONTINUOUS
 62
     7
 10
-72.831800143935183
 20
-207.28
 30
0.0
  0
VERTEX
  5
36F
  8
DATA
  6
CONTINUOUS
 62
     7
 10
-72.57008378767226
 20
-206.71777777777771
 30
0.0
  0
VERTEX
  5
370
  8
DATA
  6
CONTINUOUS
 62
     7
 10
-71.822995418369942
 20
-206.71777777777771
 30
0.0
  0
VERTEX
  5
371
  8
DATA
  6
CONTINUOUS
 62
     7
 10
-71.579328465987203
 20
-207.28
 30
0.0
  0
VERTEX
  5
372
  8
DATA
  6
CONTINUOUS
 62
     7
 10
-71.046842588843333
 20
-207.28
 30
0.0
  0
VERTEX
  5
373
  8
DATA
  6
CONTINUOUS
 62
     7
 10
-72.004274213862459
 20
-205.30000000000001
 30
0.0
  0
VERTEX
  5
374
  8
DATA
  6
CONTINUOUS
 62
     7
 10
-72.406854396059998
 20
-205.30000000000001
 30
0.0
  0
VERTEX
  5
375
  8
DATA
  6
CONTINUOUS
 62
     7
 10
-73.323842588843306
 20
-207.28
 30
0.0
  0
SEQEND
  5
376
  8
DATA
  6
CONTINUOUS
 62
     7
  0
POLYLINE
  5
1E2
  8
DATA
  6
CONTINUOUS
 62
     7
 66
     1
 10
0.0
 20
0.0
 30
0.0
 70
     1
  0
VERTEX
  5
377
  8
DATA
  6
CONTINUOUS
 62
     7
 10
-72.40108469404197
 20
-206.50192367431941
 30
0.0
  0
VERTEX
  5
378
  8
DATA
  6
CONTINUOUS
 62
     7
 10
-71.915315305958075
 20
-206.50192367431941
 30
0.0
  0
VERTEX
  5
379
  8
DATA
  6
CONTINUOUS
 62
     7
 10
-72.149525546641385
 20
-205.96928888888891
 30
0.0
  0
SEQEND
  5
37A
  8
DATA
  6
CONTINUOUS
 62
     7
  0
POLYLINE
  5
1E8
  8
DATA
  6
CONTINUOUS
 62
     7
 66
     1
 10
0.0
 20
0.0
 30
0.0
 70
     1
  0
VERTEX
  5
37B
  8
DATA
  6
CONTINUOUS
 62
     7
 10
-69.578153405161743
 20
-206.0983688521975
 30
0.0
  0
VERTEX
  5
37C
  8
DATA
  6
CONTINUOUS
 62
     7
 10
-68.458075000000008
 20
-207.28100790732199
 30
0.0
  0
VERTEX
  5
37D
  8
DATA
  6
CONTINUOUS
 62
     7
 10
-69.037587268169531
 20
-207.28100790732199
 30
0.0
  0
VERTEX
  5
37E
  8
DATA
  6
CONTINUOUS
 62
     7
 10
-69.89031935348828
 20
-206.33899135346661
 30
0.0
  0
VERTEX
  5
37F
  8
DATA
  6
CONTINUOUS
 62
     7
 10
-70.170676735587676
 20
-206.55509530359851
 30
0.0
  0
VERTEX
  5
380
  8
DATA
  6
CONTINUOUS
 62
     7
 10
-70.170676735587676
 20
-207.2797679398216
 30
0.0
  0
VERTEX
  5
381
  8
DATA
  6
CONTINUOUS
 62
     7
 10
-70.735075000000052
 20
-207.2797679398216
 30
0.0
  0
VERTEX
  5
382
  8
DATA
  6
CONTINUOUS
 62
     7
 10
-70.735075000000052
 20
-205.30000000000001
 30
0.0
  0
VERTEX
  5
383
  8
DATA
  6
CONTINUOUS
 62
     7
 10
-70.170676735587676
 20
-205.30000000000001
 30
0.0
  0
VERTEX
  5
384
  8
DATA
  6
CONTINUOUS
 62
     7
 10
-70.170676735587676
 20
-206.12272759627211
 30
0.0
  0
VERTEX
  5
385
  8
DATA
  6
CONTINUOUS
 62
     7
 10
-69.120694047619068
 20
-205.30000000000001
 30
0.0
  0
VERTEX
  5
386
  8
DATA
  6
CONTINUOUS
 62
     7
 10
-68.542408333333356
 20
-205.30000000000001
 30
0.0
  0
SEQEND
  5
387
  8
DATA
  6
CONTINUOUS
 62
     7
  0
POLYLINE
  5
1F7
  8
DATA
  6
CONTINUOUS
 62
     7
 66
     1
 10
0.0
 20
0.0
 30
0.0
 70
   129
  0
VERTEX
  5
388
  8
DATA
  6
CONTINUOUS
 62
     7
 10
-66.911203441388011
 20
-207.2830443710692
 30
0.0
  0
VERTEX
  5
389
  8
DATA
  6
CONTINUOUS
 62
     7
 10
-66.541561687931178
 20
-207.2830443710692
 30
0.0
  0
VERTEX
  5
38A
  8
DATA
  6
CONTINUOUS
 62
     7
 10
-66.538280843965595
 20
-206.18783442321271
 30
0.0
  0
VERTEX
  5
38B
  8
DATA
  6
CONTINUOUS
 62
     7
 10
-67.528002106919644
 20
-206.18783442321271
 30
0.0
  0
VERTEX
  5
38C
  8
DATA
  6
CONTINUOUS
 62
     7
 10
-67.528002106919644
 20
-206.4189648722309
 30
0.0
  0
VERTEX
  5
38D
  8
DATA
  6
CONTINUOUS
 62
     7
 10
-66.976820320699915
 20
-206.4189648722309
 30
0.0
  0
VERTEX
  5
38E
  8
DATA
  6
CONTINUOUS
 62
     7
 10
-66.976820320699915
 20
-206.6231912478184
 30
0.0
  0
VERTEX
  5
38F
  8
DATA
  6
CONTINUOUS
 62
     7
 10
-66.989943696562307
 20
-206.73692210368441
 30
0.0
  0
VERTEX
  5
390
  8
DATA
  6
CONTINUOUS
 62
     7
 10
-67.042849637534346
 20
-206.8540910968853
 30
0.0
  0
VERTEX
  5
391
  8
DATA
  6
CONTINUOUS
 62
     7
 10
-67.112303496246852
 20
-206.92135128046201
 30
0.0
  0
VERTEX
  5
392
  8
DATA
  6
CONTINUOUS
 62
     7
 10
-67.19663686639467
 20
-206.9857847829183
 30
0.0
  0
VERTEX
  5
393
  8
DATA
  6
CONTINUOUS
 62
     7
 10
-67.268815433637769
 20
-207.0139117687776
 30
0.0
  0
VERTEX
  5
394
  8
DATA
  6
CONTINUOUS
 62
     7
 10
-67.368993314248996
 20
-207.03042108656459
 30
0.0
  0
VERTEX
  5
395
  8
DATA
  6
CONTINUOUS
 62
     7
 10
-67.471134144849316
 20
-207.04265021085129
 30
0.0
  0
VERTEX
  5
396
  8
DATA
  6
CONTINUOUS
 62
     7
 10
-67.558623317265173
 20
-207.0316439989933
 30
0.0
  0
VERTEX
  5
397
  8
DATA
  6
CONTINUOUS
 62
     7
 10
-67.642396978048453
 20
-207.01207740013459
 30
0.0
  0
VERTEX
  5
398
  8
DATA
  6
CONTINUOUS
 62
     7
 10
-67.711729368992906
 20
-206.97539002727461
 30
0.0
  0
VERTEX
  5
399
  8
DATA
  6
CONTINUOUS
 62
     7
 10
-67.799218541408649
 20
-206.92647353012791
 30
0.0
  0
VERTEX
  5
39A
  8
DATA
  6
CONTINUOUS
 62
     7
 10
-67.868672400121227
 20
-206.8592133465512
 30
0.0
  0
VERTEX
  5
39B
  8
DATA
  6
CONTINUOUS
 62
     7
 10
-67.930452300032471
 20
-206.73692210368441
 30
0.0
  0
VERTEX
  5
39C
  8
DATA
  6
CONTINUOUS
 62
     7
 10
-67.985133032792305
 20
-206.57794348795761
 30
0.0
  0
VERTEX
  5
39D
  8
DATA
  6
CONTINUOUS
 62
     7
 10
-67.985133032792305
 20
-206.13769501363731
 30
0.0
  0
VERTEX
  5
39E
  8
DATA
  6
CONTINUOUS
 62
     7
 10
-67.941388446584426
 20
-205.94814358719381
 30
0.0
  0
VERTEX
  5
39F
  8
DATA
  6
CONTINUOUS
 62
     7
 10
-67.832026981064644
 20
-205.76470672289369
 30
0.0
  0
VERTEX
  5
3A0
  8
DATA
  6
CONTINUOUS
 62
     7
 10
-67.756259135196501
 20
-205.6913319771736
 30
0.0
  0
VERTEX
  5
3A1
  8
DATA
  6
CONTINUOUS
 62
     7
 10
-67.66798478278497
 20
-205.60584573841919
 30
0.0
  0
VERTEX
  5
3A2
  8
DATA
  6
CONTINUOUS
 62
     7
 10
-67.602367903473123
 20
-205.5724935812737
 30
0.0
  0
VERTEX
  5
3A3
  8
DATA
  6
CONTINUOUS
 62
     7
 10
-67.493006437953284
 20
-205.54470011698581
 30
0.0
  0
VERTEX
  5
3A4
  8
DATA
  6
CONTINUOUS
 62
     7
 10
-67.414266182779102
 20
-205.5372450111615
 30
0.0
  0
VERTEX
  5
3A5
  8
DATA
  6
CONTINUOUS
 62
     7
 10
-67.319121707776858
 20
-205.54473274204531
 30
0.0
  0
VERTEX
  5
3A6
  8
DATA
  6
CONTINUOUS
 62
     7
 10
-67.198824095705049
 20
-205.58356542713901
 30
0.0
  0
VERTEX
  5
3A7
  8
DATA
  6
CONTINUOUS
 62
     7
 10
-67.110241308634045
 20
-205.6375238303122
 30
0.0
  0
VERTEX
  5
3A8
  8
DATA
  6
CONTINUOUS
 62
     7
 10
-67.066496722426095
 20
-205.6913319771736
 30
0.0
  0
VERTEX
  5
3A9
  8
DATA
  6
CONTINUOUS
 62
     7
 10
-67.027126594839046
 20
-205.76470672289369
 30
0.0
  0
VERTEX
  5
3AA
  8
DATA
  6
CONTINUOUS
 62
     7
 10
-67.011815989666275
 20
-205.81766038438519
 30
0.0
  0
VERTEX
  5
3AB
  8
DATA
  6
CONTINUOUS
 62
     7
 10
-66.994318155183109
 20
-205.95548106176591
 30
0.0
  0
VERTEX
  5
3AC
  8
DATA
  6
CONTINUOUS
 62
     7
 10
-66.537187229310348
 20
-205.95548106176591
 30
0.0
  0
VERTEX
  5
3AD
  8
DATA
  6
CONTINUOUS
 62
     7
 10
-66.534999999999968
 20
-205.86987719175909
 30
0.0
  0
VERTEX
  5
3AE
  8
DATA
  6
CONTINUOUS
 62
     7
 10
-66.541561687931178
 20
-205.8136232200404
 30
0.0
  0
VERTEX
  5
3AF
  8
DATA
  6
CONTINUOUS
 62
     7
 10
-66.585306274139086
 20
-205.7035611014602
 30
0.0
  0
VERTEX
  5
3B0
  8
DATA
  6
CONTINUOUS
 62
     7
 10
-66.639987006898991
 20
-205.5996135450236
 30
0.0
  0
VERTEX
  5
3B1
  8
DATA
  6
CONTINUOUS
 62
     7
 10
-66.734696814234212
 20
-205.5078951128734
 30
0.0
  0
VERTEX
  5
3B2
  8
DATA
  6
CONTINUOUS
 62
     7
 10
-66.843399332765784
 20
-205.42106833043809
 30
0.0
  0
VERTEX
  5
3B3
  8
DATA
  6
CONTINUOUS
 62
     7
 10
-67.001973457769452
 20
-205.35224149006331
 30
0.0
  0
VERTEX
  5
3B4
  8
DATA
  6
CONTINUOUS
 62
     7
 10
-67.227258076740213
 20
-205.30902162278201
 30
0.0
  0
VERTEX
  5
3B5
  8
DATA
  6
CONTINUOUS
 62
     7
 10
-67.449261851745405
 20
-205.30000000000001
 30
0.0
  0
VERTEX
  5
3B6
  8
DATA
  6
CONTINUOUS
 62
     7
 10
-67.628614655197794
 20
-205.3122291242866
 30
0.0
  0
VERTEX
  5
3B7
  8
DATA
  6
CONTINUOUS
 62
     7
 10
-67.833779021567466
 20
-205.3706890878741
 30
0.0
  0
VERTEX
  5
3B8
  8
DATA
  6
CONTINUOUS
 62
     7
 10
-68.081147885409678
 20
-205.48529100836279
 30
0.0
  0
VERTEX
  5
3B9
  8
DATA
  6
CONTINUOUS
 62
     7
 10
-68.197294275900731
 20
-205.5739323840215
 30
0.0
  0
VERTEX
  5
3BA
  8
DATA
  6
CONTINUOUS
 62
     7
 10
-68.28697067762694
 20
-205.6791028528869
 30
0.0
  0
VERTEX
  5
3BB
  8
DATA
  6
CONTINUOUS
 62
     7
 10
-68.385395996594752
 20
-205.83120652610239
 30
0.0
  0
VERTEX
  5
3BC
  8
DATA
  6
CONTINUOUS
 62
     7
 10
-68.440076729354644
 20
-205.9762705730532
 30
0.0
  0
VERTEX
  5
3BD
  8
DATA
  6
CONTINUOUS
 62
     7
 10
-68.470697939700173
 20
-206.10712220292061
 30
0.0
  0
VERTEX
  5
3BE
  8
DATA
  6
CONTINUOUS
 62
     7
 10
-68.483978351561689
 20
-206.20495519721399
 30
0.0
  0
VERTEX
  5
3BF
  8
DATA
  6
CONTINUOUS
 62
     7
 10
-68.483978351561689
 20
-206.39695244851481
 30
0.0
  0
VERTEX
  5
3C0
  8
DATA
  6
CONTINUOUS
 62
     7
 10
-68.468824782388026
 20
-206.5706060133856
 30
0.0
  0
VERTEX
  5
3C1
  8
DATA
  6
CONTINUOUS
 62
     7
 10
-68.424766124181872
 20
-206.7234700669691
 30
0.0
  0
VERTEX
  5
3C2
  8
DATA
  6
CONTINUOUS
 62
     7
 10
-68.367898162111601
 20
-206.8592133465512
 30
0.0
  0
VERTEX
  5
3C3
  8
DATA
  6
CONTINUOUS
 62
     7
 10
-68.251975008660622
 20
-207.02063778713531
 30
0.0
  0
VERTEX
  5
3C4
  8
DATA
  6
CONTINUOUS
 62
     7
 10
-68.085745581070569
 20
-207.1490435921454
 30
0.0
  0
VERTEX
  5
3C5
  8
DATA
  6
CONTINUOUS
 62
     7
 10
-67.887801328479725
 20
-207.23414390997559
 30
0.0
  0
VERTEX
  5
3C6
  8
DATA
  6
CONTINUOUS
 62
     7
 10
-67.790469624167088
 20
-207.25665988586809
 30
0.0
  0
VERTEX
  5
3C7
  8
DATA
  6
CONTINUOUS
 62
     7
 10
-67.624085979247283
 20
-207.2792837657984
 30
0.0
  0
VERTEX
  5
3C8
  8
DATA
  6
CONTINUOUS
 62
     7
 10
-67.427543775971216
 20
-207.28295250308449
 30
0.0
  0
VERTEX
  5
3C9
  8
DATA
  6
CONTINUOUS
 62
     7
 10
-67.26803025364211
 20
-207.25665988586809
 30
0.0
  0
VERTEX
  5
3CA
  8
DATA
  6
CONTINUOUS
 62
     7
 10
-67.108632444903094
 20
-207.20007077822919
 30
0.0
  0
VERTEX
  5
3CB
  8
DATA
  6
CONTINUOUS
 62
     7
 10
-67.01957291249596
 20
-207.1502762694621
 30
0.0
  0
VERTEX
  5
3CC
  8
DATA
  6
CONTINUOUS
 62
     7
 10
-66.963696944837579
 20
-207.10501874471339
 30
0.0
  0
SEQEND
  5
3CD
  8
DATA
  6
CONTINUOUS
 62
     7
  0
LINE
  5
23E
  8
DATA
  6
CONTINUOUS
 62
     7
 10
0.5
 20
-235.0
 30
0.0
 11
19.5
 21
-235.0
 31
0.0
  0
LINE
  5
23F
  8
DATA
  6
CONTINUOUS
 62
     7
 10
1.0899999999999741
 20
-221.13999999999999
 30
0.0
 11
18.909999999999972
 21
-221.13999999999999
 31
0.0
  0
LINE
  5
240
  8
DATA
  6
CONTINUOUS
 62
     7
 10
18.909999999999972
 20
-221.13999999999999
 30
0.0
 11
19.5
 21
-235.0
 31
0.0
  0
LINE
  5
241
  8
DATA
  6
CONTINUOUS
 62
     7
 10
1.0899999999999741
 20
-221.13999999999999
 30
0.0
 11
0.5
 21
-235.0
 31
0.0
  0
LINE
  5
242
  8
DATA
  6
CONTINUOUS
 62
     7
 10
6.287499999999965
 20
-167.19999999999999
 30
0.0
 11
13.71249999999997
 21
-167.19999999999999
 31
0.0
  0
LINE
  5
243
  8
DATA
  6
CONTINUOUS
 62
     7
 10
14.454999999999981
 20
-187.77699999999999
 30
0.0
 11
18.909999999999972
 21
-221.13999999999999
 31
0.0
  0
LINE
  5
244
  8
DATA
  6
CONTINUOUS
 62
     7
 10
5.5449999999999591
 20
-187.77699999999999
 30
0.0
 11
1.0899999999999741
 21
-221.13999999999999
 31
0.0
  0
LINE
  5
245
  8
DATA
  6
CONTINUOUS
 62
     7
 10
14.454999999999981
 20
-187.77699999999999
 30
0.0
 11
13.86099999999999
 21
-182.827
 31
0.0
  0
LINE
  5
246
  8
DATA
  6
CONTINUOUS
 62
     7
 10
13.86099999999999
 20
-182.827
 30
0.0
 11
13.71249999999997
 21
-177.8769999999999
 31
0.0
  0
LINE
  5
247
  8
DATA
  6
CONTINUOUS
 62
     7
 10
13.71249999999997
 20
-177.8769999999999
 30
0.0
 11
13.71249999999997
 21
-167.19999999999999
 31
0.0
  0
LINE
  5
248
  8
DATA
  6
CONTINUOUS
 62
     7
 10
5.5449999999999591
 20
-187.77699999999999
 30
0.0
 11
6.2059792284866253
 21
-182.827
 31
0.0
  0
LINE
  5
249
  8
DATA
  6
CONTINUOUS
 62
     7
 10
6.2059792284866253
 20
-182.827
 30
0.0
 11
6.287499999999965
 21
-177.8769999999999
 31
0.0
  0
LINE
  5
24A
  8
DATA
  6
CONTINUOUS
 62
     7
 10
6.287499999999965
 20
-177.8769999999999
 30
0.0
 11
6.287499999999965
 21
-167.19999999999999
 31
0.0
  0
LINE
  5
24B
  8
DATA
  6
CONTINUOUS
 62
     7
 10
10.990000000000011
 20
-235.0
 30
0.0
 11
10.990000000000011
 21
-221.13999999999999
 31
0.0
  0
LINE
  5
24C
  8
DATA
  6
CONTINUOUS
 62
     7
 10
10.990000000000011
 20
-235.0
 30
0.0
 11
10.990000000000011
 21
-221.13999999999999
 31
0.0
  0
LINE
  5
24D
  8
DATA
  6
CONTINUOUS
 62
     7
 10
9.0099999999999927
 20
-235.0
 30
0.0
 11
9.0099999999999927
 21
-221.13999999999999
 31
0.0
  0
LINE
  5
24E
  8
DATA
  6
CONTINUOUS
 62
     7
 10
-65.450000000000074
 20
248.19999999999999
 30
0.0
 11
-66.250000000000014
 21
235.66800000000001
 31
0.0
  0
LINE
  5
24F
  8
DATA
  6
CONTINUOUS
 62
     7
 10
-74.550000000000068
 20
248.19999999999999
 30
0.0
 11
-73.750000000000028
 21
235.66800000000001
 31
0.0
  0
LINE
  5
250
  8
DATA
  6
CONTINUOUS
 62
     7
 10
-65.900000000000034
 20
257.5
 30
0.0
 11
-74.10000000000008
 21
257.5
 31
0.0
  0
LINE
  5
251
  8
DATA
  6
CONTINUOUS
 62
     7
 10
-74.200000000000031
 20
257.5
 30
0.0
 11
-65.800000000000068
 21
257.5
 31
0.0
  0
LINE
  5
252
  8
DATA
  6
CONTINUOUS
 62
     7
 10
-74.200000000000031
 20
257.5
 30
0.0
 11
-74.200000000000031
 21
253.19999999999999
 31
0.0
  0
LINE
  5
253
  8
DATA
  6
CONTINUOUS
 62
     7
 10
-65.800000000000068
 20
257.5
 30
0.0
 11
-65.800000000000068
 21
253.19999999999999
 31
0.0
  0
LINE
  5
254
  8
DATA
  6
CONTINUOUS
 62
     7
 10
-74.200000000000031
 20
254.09999999999999
 30
0.0
 11
-65.800000000000068
 21
254.71529718209811
 31
0.0
  0
LINE
  5
255
  8
DATA
  6
CONTINUOUS
 62
     7
 10
-74.200000000000031
 20
253.69999999999999
 30
0.0
 11
-65.800000000000068
 21
254.31529718209799
 31
0.0
  0
LINE
  5
256
  8
DATA
  6
CONTINUOUS
 62
     7
 10
14.55000000000004
 20
248.19999999999999
 30
0.0
 11
13.75000000000005
 21
235.66800000000001
 31
0.0
  0
LINE
  5
257
  8
DATA
  6
CONTINUOUS
 62
     7
 10
5.4500000000000446
 20
248.19999999999999
 30
0.0
 11
6.250000000000056
 21
235.66800000000001
 31
0.0
  0
LINE
  5
258
  8
DATA
  6
CONTINUOUS
 62
     7
 10
-65.450000000000074
 20
253.19999999999999
 30
0.0
 11
-74.550000000000068
 21
253.19999999999999
 31
0.0
  0
LINE
  5
259
  8
DATA
  6
CONTINUOUS
 62
     7
 10
-70.750000000000071
 20
250.69999999999999
 30
0.0
 11
-69.250000000000071
 21
250.69999999999999
 31
0.0
  0
LINE
  5
25A
  8
DATA
  6
CONTINUOUS
 62
     7
 10
-70.750000000000071
 20
248.19999999999999
 30
0.0
 11
-69.250000000000071
 21
248.19999999999999
 31
0.0
  0
ARC
  5
25B
  8
DATA
  6
CONTINUOUS
 62
     7
 10
-70.750000000000071
 20
249.44999999999999
 30
0.0
 40
1.25
 50
90.0
 51
270.0
  0
ARC
  5
25C
  8
DATA
  6
CONTINUOUS
 62
     7
 10
-69.250000000000071
 20
249.44999999999999
 30
0.0
 40
1.25
 50
270.0
 51
90.0
  0
LINE
  5
25D
  8
DATA
  6
CONTINUOUS
 62
     7
 10
14.55000000000004
 20
253.19999999999999
 30
0.0
 11
5.4500000000000446
 21
253.19999999999999
 31
0.0
  0
LINE
  5
25E
  8
DATA
  6
CONTINUOUS
 62
     7
 10
-65.450000000000074
 20
253.19999999999999
 30
0.0
 11
-65.450000000000074
 21
248.19999999999999
 31
0.0
  0
ARC
  5
25F
  8
DATA
  6
CONTINUOUS
 62
     7
 10
-65.450000000000074
 20
249.44999999999999
 30
0.0
 40
1.25
 50
90.0
 51
270.0
  0
LINE
  5
260
  8
DATA
  6
CONTINUOUS
 62
     7
 10
-74.550000000000068
 20
253.19999999999999
 30
0.0
 11
-74.550000000000068
 21
248.19999999999999
 31
0.0
  0
ARC
  5
261
  8
DATA
  6
CONTINUOUS
 62
     7
 10
-74.550000000000068
 20
249.44999999999999
 30
0.0
 40
1.25
 50
270.0
 51
90.0
  0
LINE
  5
262
  8
DATA
  6
CONTINUOUS
 62
     7
 10
9.2500000000000568
 20
250.69999999999999
 30
0.0
 11
10.75000000000005
 21
250.69999999999999
 31
0.0
  0
LINE
  5
263
  8
DATA
  6
CONTINUOUS
 62
     7
 10
9.2500000000000568
 20
248.19999999999999
 30
0.0
 11
10.75000000000005
 21
248.19999999999999
 31
0.0
  0
ARC
  5
264
  8
DATA
  6
CONTINUOUS
 62
     7
 10
9.2500000000000568
 20
249.44999999999999
 30
0.0
 40
1.25
 50
90.0
 51
270.0
  0
ARC
  5
265
  8
DATA
  6
CONTINUOUS
 62
     7
 10
10.75000000000005
 20
249.44999999999999
 30
0.0
 40
1.25
 50
270.0
 51
90.0
  0
LINE
  5
266
  8
DATA
  6
CONTINUOUS
 62
     7
 10
14.55000000000004
 20
253.19999999999999
 30
0.0
 11
14.55000000000004
 21
248.19999999999999
 31
0.0
  0
ARC
  5
267
  8
DATA
  6
CONTINUOUS
 62
     7
 10
14.55000000000004
 20
249.44999999999999
 30
0.0
 40
1.25
 50
90.0
 51
270.0
  0
LINE
  5
268
  8
DATA
  6
CONTINUOUS
 62
     7
 10
5.4500000000000446
 20
253.19999999999999
 30
0.0
 11
5.4500000000000446
 21
248.19999999999999
 31
0.0
  0
ARC
  5
269
  8
DATA
  6
CONTINUOUS
 62
     7
 10
5.4500000000000446
 20
249.44999999999999
 30
0.0
 40
1.25
 50
270.0
 51
90.0
  0
LINE
  5
26A
  8
DATA
  6
CONTINUOUS
 62
     7
 10
-65.800000000000068
 20
253.69999999999999
 30
0.0
 11
-74.200000000000031
 21
253.69999999999999
 31
0.0
  0
LINE
  5
26B
  8
DATA
  6
CONTINUOUS
 62
     7
 10
-74.200000000000031
 20
254.5
 30
0.0
 11
-65.800000000000068
 21
255.115297182098
 31
0.0
  0
LINE
  5
26C
  8
DATA
  6
CONTINUOUS
 62
     7
 10
-74.200000000000031
 20
254.90000000000001
 30
0.0
 11
-65.800000000000068
 21
255.51529718209801
 31
0.0
  0
LINE
  5
26D
  8
DATA
  6
CONTINUOUS
 62
     7
 10
-74.200000000000031
 20
255.30000000000001
 30
0.0
 11
-65.800000000000068
 21
255.91529718209799
 31
0.0
  0
LINE
  5
26E
  8
DATA
  6
CONTINUOUS
 62
     7
 10
-74.200000000000031
 20
255.69999999999999
 30
0.0
 11
-65.800000000000068
 21
256.31529718209799
 31
0.0
  0
LINE
  5
26F
  8
DATA
  6
CONTINUOUS
 62
     7
 10
-74.200000000000031
 20
256.10000000000002
 30
0.0
 11
-65.800000000000068
 21
256.71529718209803
 31
0.0
  0
LINE
  5
270
  8
DATA
  6
CONTINUOUS
 62
     7
 10
-74.200000000000031
 20
256.5
 30
0.0
 11
-65.800000000000068
 21
257.115297182098
 31
0.0
  0
LINE
  5
271
  8
DATA
  6
CONTINUOUS
 62
     7
 10
-74.200000000000031
 20
256.89999999999998
 30
0.0
 11
-66.008836206896206
 21
257.5
 31
0.0
  0
LINE
  5
272
  8
DATA
  6
CONTINUOUS
 62
     7
 10
-74.200000000000031
 20
257.30000000000001
 30
0.0
 11
-71.469612068965475
 21
257.5
 31
0.0
  0
LINE
  5
273
  8
DATA
  6
CONTINUOUS
 62
     7
 10
14.10000000000008
 20
257.5
 30
0.0
 11
5.9000000000000332
 21
257.5
 31
0.0
  0
LINE
  5
274
  8
DATA
  6
CONTINUOUS
 62
     7
 10
5.8000000000000389
 20
257.5
 30
0.0
 11
14.20000000000004
 21
257.5
 31
0.0
  0
LINE
  5
275
  8
DATA
  6
CONTINUOUS
 62
     7
 10
5.8000000000000389
 20
257.5
 30
0.0
 11
5.8000000000000389
 21
253.19999999999999
 31
0.0
  0
LINE
  5
276
  8
DATA
  6
CONTINUOUS
 62
     7
 10
14.20000000000004
 20
257.5
 30
0.0
 11
14.20000000000004
 21
253.19999999999999
 31
0.0
  0
LINE
  5
277
  8
DATA
  6
CONTINUOUS
 62
     7
 10
5.8000000000000389
 20
254.09999999999999
 30
0.0
 11
14.20000000000004
 21
254.71529718209811
 31
0.0
  0
LINE
  5
278
  8
DATA
  6
CONTINUOUS
 62
     7
 10
5.8000000000000389
 20
253.69999999999999
 30
0.0
 11
14.20000000000004
 21
254.31529718209799
 31
0.0
  0
LINE
  5
279
  8
DATA
  6
CONTINUOUS
 62
     7
 10
14.20000000000004
 20
253.69999999999999
 30
0.0
 11
5.8000000000000389
 21
253.69999999999999
 31
0.0
  0
LINE
  5
27A
  8
DATA
  6
CONTINUOUS
 62
     7
 10
5.8000000000000389
 20
254.5
 30
0.0
 11
14.20000000000004
 21
255.115297182098
 31
0.0
  0
LINE
  5
27B
  8
DATA
  6
CONTINUOUS
 62
     7
 10
5.8000000000000389
 20
254.90000000000001
 30
0.0
 11
14.20000000000004
 21
255.51529718209801
 31
0.0
  0
LINE
  5
27C
  8
DATA
  6
CONTINUOUS
 62
     7
 10
5.8000000000000389
 20
255.30000000000001
 30
0.0
 11
14.20000000000004
 21
255.91529718209799
 31
0.0
  0
LINE
  5
27D
  8
DATA
  6
CONTINUOUS
 62
     7
 10
5.8000000000000389
 20
255.69999999999999
 30
0.0
 11
14.20000000000004
 21
256.31529718209799
 31
0.0
  0
LINE
  5
27E
  8
DATA
  6
CONTINUOUS
 62
     7
 10
5.8000000000000389
 20
256.10000000000002
 30
0.0
 11
14.20000000000004
 21
256.71529718209803
 31
0.0
  0
LINE
  5
27F
  8
DATA
  6
CONTINUOUS
 62
     7
 10
5.8000000000000389
 20
256.5
 30
0.0
 11
14.20000000000004
 21
257.115297182098
 31
0.0
  0
LINE
  5
280
  8
DATA
  6
CONTINUOUS
 62
     7
 10
5.8000000000000389
 20
256.89999999999998
 30
0.0
 11
13.991163793103899
 21
257.5
 31
0.0
  0
LINE
  5
281
  8
DATA
  6
CONTINUOUS
 62
     7
 10
5.8000000000000389
 20
257.30000000000001
 30
0.0
 11
8.5303879310345945
 21
257.5
 31
0.0
  0
LINE
  5
282
  8
DATA
  6
CONTINUOUS
 62
     7
 10
-73.750000000000028
 20
232.203
 30
0.0
 11
-66.250000000000014
 21
232.203
 31
0.0
  0
LINE
  5
283
  8
DATA
  6
CONTINUOUS
 62
     7
 10
-73.750000000000028
 20
232.203
 30
0.0
 11
-73.750000000000028
 21
235.66800000000001
 31
0.0
  0
LINE
  5
284
  8
DATA
  6
CONTINUOUS
 62
     7
 10
-66.250000000000014
 20
232.203
 30
0.0
 11
-66.250000000000014
 21
235.66800000000001
 31
0.0
  0
LINE
  5
285
  8
DATA
  6
CONTINUOUS
 62
     7
 10
6.250000000000056
 20
232.203
 30
0.0
 11
13.75000000000005
 21
232.203
 31
0.0
  0
LINE
  5
286
  8
DATA
  6
CONTINUOUS
 62
     7
 10
6.250000000000056
 20
232.203
 30
0.0
 11
6.250000000000056
 21
235.66800000000001
 31
0.0
  0
LINE
  5
287
  8
DATA
  6
CONTINUOUS
 62
     7
 10
13.75000000000005
 20
232.203
 30
0.0
 11
13.75000000000005
 21
235.66800000000001
 31
0.0
  0
LINE
  5
288
  8
DATA
  6
CONTINUOUS
 62
     7
 10
-73.465000000000032
 20
-108.0
 30
0.0
 11
-66.535000000000082
 21
-108.0
 31
0.0
  0
LINE
  5
289
  8
DATA
  6
CONTINUOUS
 62
     7
 10
6.535000000000081
 20
-108.0
 30
0.0
 11
13.46500000000003
 21
-108.0
 31
0.0
  0
LINE
  5
28A
  8
DATA
  6
CONTINUOUS
 62
     7
 10
12.970000000000139
 20
-108.33199999999999
 30
0.0
 11
7.0300000000000864
 21
-109.00700000000001
 31
0.0
  0
LINE
  5
28B
  8
DATA
  6
CONTINUOUS
 62
     7
 10
11.535600000000549
 20
-108.0
 30
0.0
 11
7.0300000000000864
 21
-108.512
 31
0.0
  0
CIRCLE
  5
28C
  8
DATA
  6
CONTINUOUS
 62
     7
 10
-70.0
 20
290.0
 30
0.0
 40
4.2000000000000171
  0
CIRCLE
  5
28D
  8
DATA
  6
CONTINUOUS
 62
     7
 10
-70.0
 20
290.0
 30
0.0
 40
4.5500000000000114
  0
CIRCLE
  5
28E
  8
DATA
  6
CONTINUOUS
 62
     7
 10
-70.0
 20
290.0
 30
0.0
 40
1.5
  0
CIRCLE
  5
28F
  8
DATA
  6
CONTINUOUS
 62
     7
 10
-70.0
 20
290.0
 30
0.0
 40
1.0
  0
CIRCLE
  5
290
  8
DATA
  6
CONTINUOUS
 62
     7
 10
-72.799999999999955
 20
290.0
 30
0.0
 40
0.5
  0
CIRCLE
  5
291
  8
DATA
  6
CONTINUOUS
 62
     7
 10
-67.199999999999932
 20
290.0
 30
0.0
 40
0.5
  0
CIRCLE
  5
292
  8
DATA
  6
CONTINUOUS
 62
     7
 10
-70.0
 20
-269.99999999999852
 30
0.0
 40
9.4999999999985363
  0
ARC
  5
293
  8
DATA
  6
CONTINUOUS
 62
     7
 10
-70.0
 20
-269.99999999999898
 30
0.0
 40
5.599999999999052
 50
103.286558732476
 51
76.713441267524033
  0
POLYLINE
  5
294
  8
DATA
  6
CONTINUOUS
 62
     7
 66
     1
 10
0.0
 20
0.0
 30
0.0
 70
     1
  0
VERTEX
  5
3CE
  8
DATA
  6
CONTINUOUS
 62
     7
 10
-73.75
 20
-267.14493949403129
 30
0.0
  0
VERTEX
  5
3CF
  8
DATA
  6
CONTINUOUS
 62
     7
 10
-66.25
 20
-267.14493949403129
 30
0.0
  0
VERTEX
  5
3D0
  8
DATA
  6
CONTINUOUS
 62
     7
 10
-66.25
 20
-274.14493949403129
 30
0.0
  0
VERTEX
  5
3D1
  8
DATA
  6
CONTINUOUS
 62
     7
 10
-73.75
 20
-274.14493949403129
 30
0.0
  0
SEQEND
  5
3D2
  8
DATA
  6
CONTINUOUS
 62
     7
  0
LINE
  5
29B
  8
DATA
  6
CONTINUOUS
 62
     7
 10
-71.287000000000049
 20
-264.5498962395198
 30
0.0
 11
-71.287000000000049
 21
-266.0
 31
0.0
  0
LINE
  5
29C
  8
DATA
  6
CONTINUOUS
 62
     7
 10
-68.712999999999965
 20
-264.5498962395198
 30
0.0
 11
-68.712999999999965
 21
-265.89999999999998
 31
0.0
  0
LINE
  5
29D
  8
DATA
  6
CONTINUOUS
 62
     7
 10
-71.287000000000049
 20
-265.89999999999998
 30
0.0
 11
-68.712999999999965
 21
-265.89999999999998
 31
0.0
  0
POLYLINE
  5
29E
  8
DATA
  6
CONTINUOUS
 62
     7
 66
     1
 10
0.0
 20
0.0
 30
0.0
 70
     1
  0
VERTEX
  5
3D3
  8
DATA
  6
CONTINUOUS
 62
     7
 10
-72.625
 20
-268.14493949403129
 30
0.0
  0
VERTEX
  5
3D4
  8
DATA
  6
CONTINUOUS
 62
     7
 10
-71.125
 20
-268.14493949403129
 30
0.0
  0
VERTEX
  5
3D5
  8
DATA
  6
CONTINUOUS
 62
     7
 10
-71.125
 20
-269.64493949403129
 30
0.0
  0
VERTEX
  5
3D6
  8
DATA
  6
CONTINUOUS
 62
     7
 10
-72.625
 20
-269.64493949403129
 30
0.0
  0
SEQEND
  5
3D7
  8
DATA
  6
CONTINUOUS
 62
     7
  0
POLYLINE
  5
2A5
  8
DATA
  6
CONTINUOUS
 62
     7
 66
     1
 10
0.0
 20
0.0
 30
0.0
 70
     1
  0
VERTEX
  5
3D8
  8
DATA
  6
CONTINUOUS
 62
     7
 10
-72.625
 20
-271.64493949403129
 30
0.0
  0
VERTEX
  5
3D9
  8
DATA
  6
CONTINUOUS
 62
     7
 10
-71.125
 20
-271.64493949403129
 30
0.0
  0
VERTEX
  5
3DA
  8
DATA
  6
CONTINUOUS
 62
     7
 10
-71.125
 20
-273.14493949403129
 30
0.0
  0
VERTEX
  5
3DB
  8
DATA
  6
CONTINUOUS
 62
     7
 10
-72.625
 20
-273.14493949403129
 30
0.0
  0
SEQEND
  5
3DC
  8
DATA
  6
CONTINUOUS
 62
     7
  0
POLYLINE
  5
2AC
  8
DATA
  6
CONTINUOUS
 62
     7
 66
     1
 10
0.0
 20
0.0
 30
0.0
 70
     1
  0
VERTEX
  5
3DD
  8
DATA
  6
CONTINUOUS
 62
     7
 10
-68.875
 20
-271.64493949403129
 30
0.0
  0
VERTEX
  5
3DE
  8
DATA
  6
CONTINUOUS
 62
     7
 10
-67.375
 20
-271.64493949403129
 30
0.0
  0
VERTEX
  5
3DF
  8
DATA
  6
CONTINUOUS
 62
     7
 10
-67.375
 20
-273.14493949403129
 30
0.0
  0
VERTEX
  5
3E0
  8
DATA
  6
CONTINUOUS
 62
     7
 10
-68.875
 20
-273.14493949403129
 30
0.0
  0
SEQEND
  5
3E1
  8
DATA
  6
CONTINUOUS
 62
     7
  0
POLYLINE
  5
2B3
  8
DATA
  6
CONTINUOUS
 62
     7
 66
     1
 10
0.0
 20
0.0
 30
0.0
 70
     1
  0
VERTEX
  5
3E2
  8
DATA
  6
CONTINUOUS
 62
     7
 10
-68.875
 20
-268.14493949403129
 30
0.0
  0
VERTEX
  5
3E3
  8
DATA
  6
CONTINUOUS
 62
     7
 10
-67.375
 20
-268.14493949403129
 30
0.0
  0
VERTEX
  5
3E4
  8
DATA
  6
CONTINUOUS
 62
     7
 10
-67.375
 20
-269.64493949403129
 30
0.0
  0
VERTEX
  5
3E5
  8
DATA
  6
CONTINUOUS
 62
     7
 10
-68.875
 20
-269.64493949403129
 30
0.0
  0
SEQEND
  5
3E6
  8
DATA
  6
CONTINUOUS
 62
     7
  0
CIRCLE
  5
2BA
  8
DATA
  6
CONTINUOUS
 62
     7
 10
-70.0
 20
-270.0
 30
0.0
 40
8.5
  0
LINE
  5
2BB
  8
DATA
  6
CONTINUOUS
 62
     7
 10
-70.990000000000023
 20
-260.55172502517007
 30
0.0
 11
-70.990000000000023
 21
-261.00871536591831
 31
0.0
  0
LINE
  5
2BC
  8
DATA
  6
CONTINUOUS
 62
     7
 10
-68.712999999999965
 20
-260.58758102292518
 30
0.0
 11
-68.712999999999965
 21
-261.00871536591831
 31
0.0
  0
LINE
  5
2BD
  8
DATA
  6
CONTINUOUS
 62
     7
 10
-70.990000000000023
 20
-261.00871536591831
 30
0.0
 11
-68.712999999999965
 21
-261.00871536591831
 31
0.0
  0
LINE
  5
2BE
  8
DATA
  6
CONTINUOUS
 62
     7
 10
-79.44827497482845
 20
-270.98999999999847
 30
0.0
 11
-78.991284634080245
 21
-270.98999999999847
 31
0.0
  0
LINE
  5
2BF
  8
DATA
  6
CONTINUOUS
 62
     7
 10
-79.412418977073301
 20
-268.71299999999849
 30
0.0
 11
-78.991284634080245
 21
-268.71299999999849
 31
0.0
  0
LINE
  5
2C0
  8
DATA
  6
CONTINUOUS
 62
     7
 10
-78.991284634080245
 20
-270.98999999999847
 30
0.0
 11
-78.991284634080245
 21
-268.71299999999849
 31
0.0
  0
LINE
  5
2C1
  8
DATA
  6
CONTINUOUS
 62
     7
 10
-60.551725025171521
 20
-270.98999999999847
 30
0.0
 11
-61.008715365919763
 21
-270.98999999999847
 31
0.0
  0
LINE
  5
2C2
  8
DATA
  6
CONTINUOUS
 62
     7
 10
-60.587581022926678
 20
-268.71299999999849
 30
0.0
 11
-61.008715365919763
 21
-268.71299999999849
 31
0.0
  0
LINE
  5
2C3
  8
DATA
  6
CONTINUOUS
 62
     7
 10
-61.008715365919763
 20
-270.98999999999847
 30
0.0
 11
-61.008715365919763
 21
-268.71299999999849
 31
0.0
  0
LINE
  5
2C4
  8
DATA
  6
CONTINUOUS
 62
     7
 10
-70.990000000000023
 20
-279.44827497482697
 30
0.0
 11
-70.990000000000023
 21
-278.99128463407868
 31
0.0
  0
LINE
  5
2C5
  8
DATA
  6
CONTINUOUS
 62
     7
 10
-68.712999999999965
 20
-279.41241897707192
 30
0.0
 11
-68.712999999999965
 21
-278.99128463407868
 31
0.0
  0
LINE
  5
2C6
  8
DATA
  6
CONTINUOUS
 62
     7
 10
-70.990000000000023
 20
-278.99128463407868
 30
0.0
 11
-68.712999999999965
 21
-278.99128463407868
 31
0.0
  0
LINE
  5
2C7
  8
DATA
  6
CONTINUOUS
 62
     7
 10
-66.606205979799554
 20
-265.54554580801982
 30
0.0
 11
-64.543365078475844
 21
-263.48270490669609
 31
0.0
  0
LINE
  5
2C8
  8
DATA
  6
CONTINUOUS
 62
     7
 10
-65.545545808019853
 20
-266.60620597979971
 30
0.0
 11
-63.482704906696021
 21
-264.54336507847592
 31
0.0
  0
LINE
  5
2C9
  8
DATA
  6
CONTINUOUS
 62
     7
 10
-73.393794020200431
 20
-274.45445419197722
 30
0.0
 11
-75.456634921524142
 21
-276.51729509330102
 31
0.0
  0
LINE
  5
2CA
  8
DATA
  6
CONTINUOUS
 62
     7
 10
-74.454454191980119
 20
-273.39379402019728
 30
0.0
 11
-76.517295093303971
 21
-275.45663492152119
 31
0.0
  0
ENDSEC
  0
EOF
